  0
SECTION
  2
HEADER
  9
$ACADVER
  1
AC1021
  9
$ACADMAINTVER
 70
    25
  9
$DWGCODEPAGE
  3
ANSI_1252
  9
$INSBASE
 10
0.0
 20
0.0
 30
0.0
  9
$EXTMIN
 10
-350.0381
 20
-200.0381
 30
0.0
  9
$EXTMAX
 10
0.0381
 20
197.9515
 30
0.0
  9
$LIMMIN
 10
0.0
 20
0.0
  9
$LIMMAX
 10
12.0
 20
9.0
  9
$ORTHOMODE
 70
     0
  9
$REGENMODE
 70
     1
  9
$FILLMODE
 70
     1
  9
$QTEXTMODE
 70
     0
  9
$MIRRTEXT
 70
     1
  9
$LTSCALE
 40
1.0
  9
$ATTMODE
 70
     1
  9
$TEXTSIZE
 40
0.2
  9
$TRACEWID
 40
0.05
  9
$TEXTSTYLE
  7
Standard
  9
$CLAYER
  8
0
  9
$CELTYPE
  6
ByLayer
  9
$CECOLOR
 62
   256
  9
$CELTSCALE
 40
1.0
  9
$DISPSILH
 70
     0
  9
$DIMSCALE
 40
1.0
  9
$DIMASZ
 40
0.18
  9
$DIMEXO
 40
0.0625
  9
$DIMDLI
 40
0.38
  9
$DIMRND
 40
0.0
  9
$DIMDLE
 40
0.0
  9
$DIMEXE
 40
0.18
  9
$DIMTP
 40
0.0
  9
$DIMTM
 40
0.0
  9
$DIMTXT
 40
0.18
  9
$DIMCEN
 40
0.09
  9
$DIMTSZ
 40
0.0
  9
$DIMTOL
 70
     0
  9
$DIMLIM
 70
     0
  9
$DIMTIH
 70
     1
  9
$DIMTOH
 70
     1
  9
$DIMSE1
 70
     0
  9
$DIMSE2
 70
     0
  9
$DIMTAD
 70
     0
  9
$DIMZIN
 70
     0
  9
$DIMBLK
  1

  9
$DIMASO
 70
     1
  9
$DIMSHO
 70
     1
  9
$DIMPOST
  1

  9
$DIMAPOST
  1

  9
$DIMALT
 70
     0
  9
$DIMALTD
 70
     2
  9
$DIMALTF
 40
25.4
  9
$DIMLFAC
 40
1.0
  9
$DIMTOFL
 70
     0
  9
$DIMTVP
 40
0.0
  9
$DIMTIX
 70
     0
  9
$DIMSOXD
 70
     0
  9
$DIMSAH
 70
     0
  9
$DIMBLK1
  1

  9
$DIMBLK2
  1

  9
$DIMSTYLE
  2
Standard
  9
$DIMCLRD
 70
     0
  9
$DIMCLRE
 70
     0
  9
$DIMCLRT
 70
     0
  9
$DIMTFAC
 40
1.0
  9
$DIMGAP
 40
0.09
  9
$DIMJUST
 70
     0
  9
$DIMSD1
 70
     0
  9
$DIMSD2
 70
     0
  9
$DIMTOLJ
 70
     1
  9
$DIMTZIN
 70
     0
  9
$DIMALTZ
 70
     0
  9
$DIMALTTZ
 70
     0
  9
$DIMUPT
 70
     0
  9
$DIMDEC
 70
     4
  9
$DIMTDEC
 70
     4
  9
$DIMALTU
 70
     2
  9
$DIMALTTD
 70
     2
  9
$DIMTXSTY
  7
Standard
  9
$DIMAUNIT
 70
     0
  9
$DIMADEC
 70
     0
  9
$DIMALTRND
 40
0.0
  9
$DIMAZIN
 70
     0
  9
$DIMDSEP
 70
    46
  9
$DIMATFIT
 70
     3
  9
$DIMFRAC
 70
     0
  9
$DIMLDRBLK
  1

  9
$DIMLUNIT
 70
     2
  9
$DIMLWD
 70
    -2
  9
$DIMLWE
 70
    -2
  9
$DIMTMOVE
 70
     0
  9
$DIMFXL
 40
1.0
  9
$DIMFXLON
 70
     0
  9
$DIMJOGANG
 40
0.7853981633974483
  9
$DIMTFILL
 70
     0
  9
$DIMTFILLCLR
 70
     0
  9
$DIMARCSYM
 70
     0
  9
$DIMLTYPE
  6

  9
$DIMLTEX1
  6

  9
$DIMLTEX2
  6

  9
$LUNITS
 70
     2
  9
$LUPREC
 70
     4
  9
$SKETCHINC
 40
0.1
  9
$FILLETRAD
 40
0.5
  9
$AUNITS
 70
     0
  9
$AUPREC
 70
     0
  9
$MENU
  1
.
  9
$ELEVATION
 40
0.0
  9
$PELEVATION
 40
0.0
  9
$THICKNESS
 40
0.0
  9
$LIMCHECK
 70
     0
  9
$CHAMFERA
 40
0.0
  9
$CHAMFERB
 40
0.0
  9
$CHAMFERC
 40
0.0
  9
$CHAMFERD
 40
0.0
  9
$SKPOLY
 70
     0
  9
$TDCREATE
 40
2459187.504691482
  9
$TDUCREATE
 40
2459187.463024815
  9
$TDUPDATE
 40
2459187.504692025
  9
$TDUUPDATE
 40
2459187.463025359
  9
$TDINDWG
 40
0.0000000116
  9
$TDUSRTIMER
 40
0.0000000116
  9
$USRTIMER
 70
     1
  9
$ANGBASE
 50
0.0
  9
$ANGDIR
 70
     0
  9
$PDMODE
 70
     0
  9
$PDSIZE
 40
0.0
  9
$PLINEWID
 40
0.0
  9
$SPLFRAME
 70
     0
  9
$SPLINETYPE
 70
     6
  9
$SPLINESEGS
 70
     8
  9
$HANDSEED
  5
10B
  9
$SURFTAB1
 70
     6
  9
$SURFTAB2
 70
     6
  9
$SURFTYPE
 70
     6
  9
$SURFU
 70
     6
  9
$SURFV
 70
     6
  9
$UCSBASE
  2

  9
$UCSNAME
  2

  9
$UCSORG
 10
0.0
 20
0.0
 30
0.0
  9
$UCSXDIR
 10
1.0
 20
0.0
 30
0.0
  9
$UCSYDIR
 10
0.0
 20
1.0
 30
0.0
  9
$UCSORTHOREF
  2

  9
$UCSORTHOVIEW
 70
     0
  9
$UCSORGTOP
 10
0.0
 20
0.0
 30
0.0
  9
$UCSORGBOTTOM
 10
0.0
 20
0.0
 30
0.0
  9
$UCSORGLEFT
 10
0.0
 20
0.0
 30
0.0
  9
$UCSORGRIGHT
 10
0.0
 20
0.0
 30
0.0
  9
$UCSORGFRONT
 10
0.0
 20
0.0
 30
0.0
  9
$UCSORGBACK
 10
0.0
 20
0.0
 30
0.0
  9
$PUCSBASE
  2

  9
$PUCSNAME
  2

  9
$PUCSORG
 10
0.0
 20
0.0
 30
0.0
  9
$PUCSXDIR
 10
1.0
 20
0.0
 30
0.0
  9
$PUCSYDIR
 10
0.0
 20
1.0
 30
0.0
  9
$PUCSORTHOREF
  2

  9
$PUCSORTHOVIEW
 70
     0
  9
$PUCSORGTOP
 10
0.0
 20
0.0
 30
0.0
  9
$PUCSORGBOTTOM
 10
0.0
 20
0.0
 30
0.0
  9
$PUCSORGLEFT
 10
0.0
 20
0.0
 30
0.0
  9
$PUCSORGRIGHT
 10
0.0
 20
0.0
 30
0.0
  9
$PUCSORGFRONT
 10
0.0
 20
0.0
 30
0.0
  9
$PUCSORGBACK
 10
0.0
 20
0.0
 30
0.0
  9
$USERI1
 70
     0
  9
$USERI2
 70
     0
  9
$USERI3
 70
     0
  9
$USERI4
 70
     0
  9
$USERI5
 70
     0
  9
$USERR1
 40
0.0
  9
$USERR2
 40
0.0
  9
$USERR3
 40
0.0
  9
$USERR4
 40
0.0
  9
$USERR5
 40
0.0
  9
$WORLDVIEW
 70
     1
  9
$SHADEDGE
 70
     3
  9
$SHADEDIF
 70
    70
  9
$TILEMODE
 70
     1
  9
$MAXACTVP
 70
    64
  9
$PINSBASE
 10
0.0
 20
0.0
 30
0.0
  9
$PLIMCHECK
 70
     0
  9
$PEXTMIN
 10
1.000000000000000E+20
 20
1.000000000000000E+20
 30
1.000000000000000E+20
  9
$PEXTMAX
 10
-1.000000000000000E+20
 20
-1.000000000000000E+20
 30
-1.000000000000000E+20
  9
$PLIMMIN
 10
0.0
 20
0.0
  9
$PLIMMAX
 10
12.0
 20
9.0
  9
$UNITMODE
 70
     0
  9
$VISRETAIN
 70
     1
  9
$PLINEGEN
 70
     0
  9
$PSLTSCALE
 70
     1
  9
$TREEDEPTH
 70
  3020
  9
$CMLSTYLE
  2
Standard
  9
$CMLJUST
 70
     0
  9
$CMLSCALE
 40
1.0
  9
$PROXYGRAPHICS
 70
     1
  9
$MEASUREMENT
 70
     0
  9
$CELWEIGHT
370
    -1
  9
$ENDCAPS
280
     0
  9
$JOINSTYLE
280
     0
  9
$LWDISPLAY
290
     0
  9
$INSUNITS
 70
     4
  9
$HYPERLINKBASE
  1

  9
$STYLESHEET
  1

  9
$XEDIT
290
     1
  9
$CEPSNTYPE
380
     0
  9
$PSTYLEMODE
290
     1
  9
$FINGERPRINTGUID
  2
{d1621a29-c0ed-46e1-8bb6-5a106fddadef}
  9
$VERSIONGUID
  2
{FAEB1C32-E019-11D5-929B-00C0DF256EC4}
  9
$EXTNAMES
290
     1
  9
$PSVPSCALE
 40
0.0
  9
$OLESTARTUP
290
     0
  9
$SORTENTS
280
   127
  9
$INDEXCTL
280
     0
  9
$HIDETEXT
280
     1
  9
$XCLIPFRAME
290
     0
  9
$HALOGAP
280
     0
  9
$OBSCOLOR
 70
   257
  9
$OBSLTYPE
280
     0
  9
$INTERSECTIONDISPLAY
280
     0
  9
$INTERSECTIONCOLOR
 70
   257
  9
$DIMASSOC
280
     2
  9
$PROJECTNAME
  1

  9
$CAMERADISPLAY
290
     0
  9
$LENSLENGTH
 40
50.0
  9
$CAMERAHEIGHT
 40
0.0
  9
$STEPSPERSEC
 40
2.0
  9
$STEPSIZE
 40
6.0
  9
$3DDWFPREC
 40
2.0
  9
$PSOLWIDTH
 40
0.25
  9
$PSOLHEIGHT
 40
4.0
  9
$LOFTANG1
 40
1.570796326794897
  9
$LOFTANG2
 40
1.570796326794897
  9
$LOFTMAG1
 40
0.0
  9
$LOFTMAG2
 40
0.0
  9
$LOFTPARAM
 70
     7
  9
$LOFTNORMALS
280
     1
  9
$LATITUDE
 40
37.795
  9
$LONGITUDE
 40
-122.394
  9
$NORTHDIRECTION
 40
0.0
  9
$TIMEZONE
 70
 -8000
  9
$LIGHTGLYPHDISPLAY
280
     1
  9
$TILEMODELIGHTSYNCH
280
     1
  9
$CMATERIAL
347
44
  9
$SOLIDHIST
280
     0
  9
$SHOWHIST
280
     1
  9
$DWFFRAME
280
     2
  9
$DGNFRAME
280
     2
  9
$REALWORLDSCALE
290
     1
  9
$INTERFERECOLOR
 62
   256
  9
$CSHADOW
280
     0
  9
$SHADOWPLANELOCATION
 40
0.0
  0
ENDSEC
  0
SECTION
  2
CLASSES
  0
CLASS
  1
ACDBDICTIONARYWDFLT
  2
AcDbDictionaryWithDefault
  3
ObjectDBX Classes
 90
        0
 91
        3
280
     0
281
     0
  0
CLASS
  1
VISUALSTYLE
  2
AcDbVisualStyle
  3
ObjectDBX Classes
 90
     4095
 91
        3
280
     0
281
     0
  0
CLASS
  1
MATERIAL
  2
AcDbMaterial
  3
ObjectDBX Classes
 90
     1153
 91
        3
280
     0
281
     0
  0
CLASS
  1
SCALE
  2
AcDbScale
  3
ObjectDBX Classes
 90
     1153
 91
        3
280
     0
281
     0
  0
CLASS
  1
TABLESTYLE
  2
AcDbTableStyle
  3
ObjectDBX Classes
 90
     4095
 91
        3
280
     0
281
     0
  0
CLASS
  1
MLEADERSTYLE
  2
AcDbMLeaderStyle
  3
ACDB_MLEADERSTYLE_CLASS
 90
     4095
 91
        3
280
     0
281
     0
  0
CLASS
  1
SUN
  2
AcDbSun
  3
SCENEOE
 90
     1153
 91
        3
280
     0
281
     0
  0
CLASS
  1
IMAGEDEF
  2
AcDbRasterImageDef
  3
ISM
 90
        0
 91
        3
280
     0
281
     0
  0
CLASS
  1
IMAGE
  2
AcDbRasterImage
  3
ISM
 90
      127
 91
        4
280
     0
281
     1
  0
CLASS
  1
IMAGEDEF_REACTOR
  2
AcDbRasterImageDefReactor
  3
ISM
 90
        1
 91
        3
280
     0
281
     0
  0
CLASS
  1
DICTIONARYVAR
  2
AcDbDictionaryVar
  3
ObjectDBX Classes
 90
        0
 91
        3
280
     0
281
     0
  0
CLASS
  1
CELLSTYLEMAP
  2
AcDbCellStyleMap
  3
ObjectDBX Classes
 90
     1152
 91
        3
280
     0
281
     0
  0
ENDSEC
  0
SECTION
  2
TABLES
  0
TABLE
  2
VPORT
  5
8
330
0
100
AcDbSymbolTable
 70
     1
  0
VPORT
  5
29
330
8
100
AcDbSymbolTableRecord
100
AcDbViewportTableRecord
  2
*Active
 70
     0
 10
0.0
 20
0.0
 11
1.0
 21
1.0
 12
10.42990654205607
 22
4.5
 13
0.0
 23
0.0
 14
0.5
 24
0.5
 15
0.5
 25
0.5
 16
0.0
 26
0.0
 36
1.0
 17
0.0
 27
0.0
 37
0.0
 40
9.0
 41
1.972972972850329
 42
50.0
 43
0.0
 44
0.0
 50
0.0
 51
0.0
 71
     0
 72
   100
 73
     1
 74
     3
 75
     0
 76
     0
 77
     0
 78
     0
281
     0
 65
     1
110
0.0
120
0.0
130
0.0
111
1.0
121
0.0
131
0.0
112
0.0
122
1.0
132
0.0
 79
     0
146
0.0
348
2F
 60
     3
 61
     5
292
     1
282
     1
141
0.0
142
0.0
 63
   250
361
6D
  0
ENDTAB
  0
TABLE
  2
LTYPE
  5
5
330
0
100
AcDbSymbolTable
 70
     1
  0
LTYPE
  5
14
330
5
100
AcDbSymbolTableRecord
100
AcDbLinetypeTableRecord
  2
ByBlock
 70
     0
  3

 72
    65
 73
     0
 40
0.0
  0
LTYPE
  5
15
330
5
100
AcDbSymbolTableRecord
100
AcDbLinetypeTableRecord
  2
ByLayer
 70
     0
  3

 72
    65
 73
     0
 40
0.0
  0
LTYPE
  5
16
330
5
100
AcDbSymbolTableRecord
100
AcDbLinetypeTableRecord
  2
Continuous
 70
     0
  3
Solid line
 72
    65
 73
     0
 40
0.0
  0
ENDTAB
  0
TABLE
  2
LAYER
  5
2
330
0
100
AcDbSymbolTable
 70
     2
  0
LAYER
  5
10
330
2
100
AcDbSymbolTableRecord
100
AcDbLayerTableRecord
  2
0
 70
     0
 62
     7
  6
Continuous
370
    -3
390
F
347
46
  0
LAYER
  5
6F
330
2
100
AcDbSymbolTableRecord
100
AcDbLayerTableRecord
  2
Layer 1
 70
     0
 62
     7
  6
Continuous
370
    -3
390
F
347
46
  0
ENDTAB
  0
TABLE
  2
STYLE
  5
3
330
0
100
AcDbSymbolTable
 70
     1
  0
STYLE
  5
11
330
3
100
AcDbSymbolTableRecord
100
AcDbTextStyleTableRecord
  2
Standard
 70
     0
 40
0.0
 41
1.0
 50
0.0
 71
     0
 42
0.2
  3
txt
  4

  0
ENDTAB
  0
TABLE
  2
VIEW
  5
6
330
0
100
AcDbSymbolTable
 70
     0
  0
ENDTAB
  0
TABLE
  2
UCS
  5
7
330
0
100
AcDbSymbolTable
 70
     0
  0
ENDTAB
  0
TABLE
  2
APPID
  5
9
330
0
100
AcDbSymbolTable
 70
     3
  0
APPID
  5
12
330
9
100
AcDbSymbolTableRecord
100
AcDbRegAppTableRecord
  2
ACAD
 70
     0
  0
APPID
  5
6E
330
9
100
AcDbSymbolTableRecord
100
AcDbRegAppTableRecord
  2
ODA
 70
     0
  0
APPID
  5
103
330
9
100
AcDbSymbolTableRecord
100
AcDbRegAppTableRecord
  2
ACAD_MLEADERVER
 70
     0
  0
ENDTAB
  0
TABLE
  2
DIMSTYLE
  5
A
330
0
100
AcDbSymbolTable
 70
     1
100
AcDbDimStyleTable
  0
DIMSTYLE
105
27
330
A
100
AcDbSymbolTableRecord
100
AcDbDimStyleTableRecord
  2
Standard
 70
     0
178
     0
340
11
  0
ENDTAB
  0
TABLE
  2
BLOCK_RECORD
  5
1
330
0
100
AcDbSymbolTable
 70
     1
  0
BLOCK_RECORD
  5
1F
330
1
100
AcDbSymbolTableRecord
100
AcDbBlockTableRecord
  2
*Model_Space
340
22
 70
     0
280
     1
281
     0
  0
BLOCK_RECORD
  5
1B
330
1
100
AcDbSymbolTableRecord
100
AcDbBlockTableRecord
  2
*Paper_Space
340
1E
 70
     0
280
     1
281
     0
  0
BLOCK_RECORD
  5
23
330
1
100
AcDbSymbolTableRecord
100
AcDbBlockTableRecord
  2
*Paper_Space0
340
26
 70
     0
280
     1
281
     0
  0
ENDTAB
  0
ENDSEC
  0
SECTION
  2
BLOCKS
  0
BLOCK
  5
20
330
1F
100
AcDbEntity
  8
0
100
AcDbBlockBegin
  2
*Model_Space
 70
     0
 10
0.0
 20
0.0
 30
0.0
  3
*Model_Space
  1

  0
ENDBLK
  5
21
330
1F
100
AcDbEntity
  8
0
100
AcDbBlockEnd
  0
BLOCK
  5
1C
330
1B
100
AcDbEntity
 67
     1
  8
0
100
AcDbBlockBegin
  2
*Paper_Space
 70
     0
 10
0.0
 20
0.0
 30
0.0
  3
*Paper_Space
  1

  0
ENDBLK
  5
1D
330
1B
100
AcDbEntity
 67
     1
  8
0
100
AcDbBlockEnd
  0
BLOCK
  5
24
330
23
100
AcDbEntity
  8
0
100
AcDbBlockBegin
  2
*Paper_Space0
 70
     0
 10
0.0
 20
0.0
 30
0.0
  3
*Paper_Space0
  1

  0
ENDBLK
  5
25
330
23
100
AcDbEntity
  8
0
100
AcDbBlockEnd
  0
ENDSEC
  0
SECTION
  2
ENTITIES
  0
SPLINE
  5
70
330
1F
100
AcDbEntity
  8
Layer 1
 62
     4
370
     9
100
AcDbSpline
210
0.0
220
0.0
230
1.0
 70
    11
 71
     3
 72
    20
 73
    16
 74
     0
 42
0.000000001
 43
0.0000000001
 40
0.0
 40
0.0
 40
0.0
 40
0.0
 40
0.2
 40
0.2
 40
0.2
 40
0.2
 40
0.4
 40
0.4
 40
0.4
 40
0.4
 40
0.6
 40
0.6
 40
0.6
 40
0.6
 40
1.0
 40
1.0
 40
1.0
 40
1.0
 10
-330.001
 20
172.1547
 30
0.0
 10
-336.1866
 20
172.1547
 30
0.0
 10
-341.201
 20
177.1691
 30
0.0
 10
-341.201
 20
183.3547
 30
0.0
 10
-341.201
 20
183.3547
 30
0.0
 10
-341.201
 20
189.5403
 30
0.0
 10
-336.1866
 20
194.5547
 30
0.0
 10
-330.001
 20
194.5547
 30
0.0
 10
-330.001
 20
194.5547
 30
0.0
 10
-323.8154
 20
194.5547
 30
0.0
 10
-318.801
 20
189.5403
 30
0.0
 10
-318.801
 20
183.3547
 30
0.0
 10
-318.801
 20
183.3547
 30
0.0
 10
-318.801
 20
177.1691
 30
0.0
 10
-323.8154
 20
172.1547
 30
0.0
 10
-330.001
 20
172.1547
 30
0.0
  0
ELLIPSE
  5
71
330
1F
100
AcDbEntity
  8
Layer 1
 62
     5
370
     9
100
AcDbEllipse
 10
-330.001
 20
183.3547
 30
0.0
 11
0.0
 21
2.0
 31
0.0
210
0.0
220
0.0
230
1.0
 40
1.0
 41
0.0
 42
6.283185307179586
  0
SPLINE
  5
72
330
1F
100
AcDbEntity
  8
Layer 1
 62
     4
370
     9
100
AcDbSpline
210
0.0
220
0.0
230
1.0
 70
    11
 71
     3
 72
    20
 73
    16
 74
     0
 42
0.000000001
 43
0.0000000001
 40
0.0
 40
0.0
 40
0.0
 40
0.0
 40
0.2
 40
0.2
 40
0.2
 40
0.2
 40
0.4
 40
0.4
 40
0.4
 40
0.4
 40
0.6
 40
0.6
 40
0.6
 40
0.6
 40
1.0
 40
1.0
 40
1.0
 40
1.0
 10
-255.4328
 20
167.9134
 30
0.0
 10
-263.717
 20
167.9134
 30
0.0
 10
-270.4328
 20
174.6292
 30
0.0
 10
-270.4328
 20
182.9134
 30
0.0
 10
-270.4328
 20
182.9134
 30
0.0
 10
-270.4328
 20
191.1976
 30
0.0
 10
-263.717
 20
197.9134
 30
0.0
 10
-255.4328
 20
197.9134
 30
0.0
 10
-255.4328
 20
197.9134
 30
0.0
 10
-247.1486
 20
197.9134
 30
0.0
 10
-240.4328
 20
191.1976
 30
0.0
 10
-240.4328
 20
182.9134
 30
0.0
 10
-240.4328
 20
182.9134
 30
0.0
 10
-240.4328
 20
174.6292
 30
0.0
 10
-247.1486
 20
167.9134
 30
0.0
 10
-255.4328
 20
167.9134
 30
0.0
  0
ELLIPSE
  5
73
330
1F
100
AcDbEntity
  8
Layer 1
 62
     5
370
     9
100
AcDbEllipse
 10
-255.4328
 20
182.9134
 30
0.0
 11
0.0
 21
1.9
 31
0.0
210
0.0
220
0.0
230
1.0
 40
1.0
 41
0.0
 42
6.283185307179586
  0
SPLINE
  5
74
330
1F
100
AcDbEntity
  8
Layer 1
 62
     4
370
     9
100
AcDbSpline
210
0.0
220
0.0
230
1.0
 70
    11
 71
     3
 72
    20
 73
    16
 74
     0
 42
0.000000001
 43
0.0000000001
 40
0.0
 40
0.0
 40
0.0
 40
0.0
 40
0.2
 40
0.2
 40
0.2
 40
0.2
 40
0.4
 40
0.4
 40
0.4
 40
0.4
 40
0.6
 40
0.6
 40
0.6
 40
0.6
 40
1.0
 40
1.0
 40
1.0
 40
1.0
 10
-304.2485
 20
171.978
 30
0.0
 10
-310.4341
 20
171.978
 30
0.0
 10
-315.4485
 20
176.9924
 30
0.0
 10
-315.4485
 20
183.178
 30
0.0
 10
-315.4485
 20
183.178
 30
0.0
 10
-315.4485
 20
189.3636
 30
0.0
 10
-310.4341
 20
194.378
 30
0.0
 10
-304.2485
 20
194.378
 30
0.0
 10
-304.2485
 20
194.378
 30
0.0
 10
-298.0629
 20
194.378
 30
0.0
 10
-293.0485
 20
189.3636
 30
0.0
 10
-293.0485
 20
183.178
 30
0.0
 10
-293.0485
 20
183.178
 30
0.0
 10
-293.0485
 20
176.9924
 30
0.0
 10
-298.0629
 20
171.978
 30
0.0
 10
-304.2485
 20
171.978
 30
0.0
  0
ELLIPSE
  5
75
330
1F
100
AcDbEntity
  8
Layer 1
 62
     5
370
     9
100
AcDbEllipse
 10
-304.2485
 20
183.178
 30
0.0
 11
0.0
 21
2.0
 31
0.0
210
0.0
220
0.0
230
1.0
 40
1.0
 41
0.0
 42
6.283185307179586
  0
SPLINE
  5
76
330
1F
100
AcDbEntity
  8
Layer 1
 62
     4
370
     9
100
AcDbSpline
210
0.0
220
0.0
230
1.0
 70
    11
 71
     3
 72
    20
 73
    16
 74
     0
 42
0.000000001
 43
0.0000000001
 40
0.0
 40
0.0
 40
0.0
 40
0.0
 40
0.2
 40
0.2
 40
0.2
 40
0.2
 40
0.4
 40
0.4
 40
0.4
 40
0.4
 40
0.6
 40
0.6
 40
0.6
 40
0.6
 40
1.0
 40
1.0
 40
1.0
 40
1.0
 10
-221.1693
 20
167.781
 30
0.0
 10
-229.4535
 20
167.781
 30
0.0
 10
-236.1693
 20
174.4968
 30
0.0
 10
-236.1693
 20
182.781
 30
0.0
 10
-236.1693
 20
182.781
 30
0.0
 10
-236.1693
 20
191.0652
 30
0.0
 10
-229.4535
 20
197.781
 30
0.0
 10
-221.1693
 20
197.781
 30
0.0
 10
-221.1693
 20
197.781
 30
0.0
 10
-212.8851
 20
197.781
 30
0.0
 10
-206.1693
 20
191.0652
 30
0.0
 10
-206.1693
 20
182.781
 30
0.0
 10
-206.1693
 20
182.781
 30
0.0
 10
-206.1693
 20
174.4968
 30
0.0
 10
-212.8851
 20
167.781
 30
0.0
 10
-221.1693
 20
167.781
 30
0.0
  0
ELLIPSE
  5
77
330
1F
100
AcDbEntity
  8
Layer 1
 62
     5
370
     9
100
AcDbEllipse
 10
-221.1693
 20
182.781
 30
0.0
 11
0.0
 21
1.9
 31
0.0
210
0.0
220
0.0
230
1.0
 40
1.0
 41
0.0
 42
6.283185307179586
  0
SPLINE
  5
78
330
1F
100
AcDbEntity
  8
Layer 1
 62
     4
370
     9
100
AcDbSpline
210
0.0
220
0.0
230
1.0
 70
    11
 71
     3
 72
    20
 73
    16
 74
     0
 42
0.000000001
 43
0.0000000001
 40
0.0
 40
0.0
 40
0.0
 40
0.0
 40
0.2
 40
0.2
 40
0.2
 40
0.2
 40
0.4
 40
0.4
 40
0.4
 40
0.4
 40
0.6
 40
0.6
 40
0.6
 40
0.6
 40
1.0
 40
1.0
 40
1.0
 40
1.0
 10
-122.9209
 20
165.8047
 30
0.0
 10
-129.1065
 20
165.8047
 30
0.0
 10
-134.1209
 20
170.8191
 30
0.0
 10
-134.1209
 20
177.0047
 30
0.0
 10
-134.1209
 20
177.0047
 30
0.0
 10
-134.1209
 20
183.1903
 30
0.0
 10
-129.1065
 20
188.2047
 30
0.0
 10
-122.9209
 20
188.2047
 30
0.0
 10
-122.9209
 20
188.2047
 30
0.0
 10
-116.7353
 20
188.2047
 30
0.0
 10
-111.7209
 20
183.1903
 30
0.0
 10
-111.7209
 20
177.0047
 30
0.0
 10
-111.7209
 20
177.0047
 30
0.0
 10
-111.7209
 20
170.8191
 30
0.0
 10
-116.7353
 20
165.8047
 30
0.0
 10
-122.9209
 20
165.8047
 30
0.0
  0
ELLIPSE
  5
79
330
1F
100
AcDbEntity
  8
Layer 1
 62
     5
370
     9
100
AcDbEllipse
 10
-122.9209
 20
177.0047
 30
0.0
 11
0.0
 21
2.0
 31
0.0
210
0.0
220
0.0
230
1.0
 40
1.0
 41
0.0
 42
6.283185307179586
  0
SPLINE
  5
7A
330
1F
100
AcDbEntity
  8
Layer 1
 62
     4
370
     9
100
AcDbSpline
210
0.0
220
0.0
230
1.0
 70
    11
 71
     3
 72
    20
 73
    16
 74
     0
 42
0.000000001
 43
0.0000000001
 40
0.0
 40
0.0
 40
0.0
 40
0.0
 40
0.2
 40
0.2
 40
0.2
 40
0.2
 40
0.4
 40
0.4
 40
0.4
 40
0.4
 40
0.6
 40
0.6
 40
0.6
 40
0.6
 40
1.0
 40
1.0
 40
1.0
 40
1.0
 10
-188.1843
 20
167.0317
 30
0.0
 10
-196.4685
 20
167.0317
 30
0.0
 10
-203.1843
 20
173.7475
 30
0.0
 10
-203.1843
 20
182.0317
 30
0.0
 10
-203.1843
 20
182.0317
 30
0.0
 10
-203.1843
 20
190.3159
 30
0.0
 10
-196.4685
 20
197.0317
 30
0.0
 10
-188.1843
 20
197.0317
 30
0.0
 10
-188.1843
 20
197.0317
 30
0.0
 10
-179.9001
 20
197.0317
 30
0.0
 10
-173.1843
 20
190.3159
 30
0.0
 10
-173.1843
 20
182.0317
 30
0.0
 10
-173.1843
 20
182.0317
 30
0.0
 10
-173.1843
 20
173.7475
 30
0.0
 10
-179.9001
 20
167.0317
 30
0.0
 10
-188.1843
 20
167.0317
 30
0.0
  0
ELLIPSE
  5
7B
330
1F
100
AcDbEntity
  8
Layer 1
 62
     5
370
     9
100
AcDbEllipse
 10
-188.1843
 20
182.0317
 30
0.0
 11
0.0
 21
1.9
 31
0.0
210
0.0
220
0.0
230
1.0
 40
1.0
 41
0.0
 42
6.283185307179586
  0
SPLINE
  5
7C
330
1F
100
AcDbEntity
  8
Layer 1
 62
     4
370
     9
100
AcDbSpline
210
0.0
220
0.0
230
1.0
 70
    11
 71
     3
 72
    20
 73
    16
 74
     0
 42
0.000000001
 43
0.0000000001
 40
0.0
 40
0.0
 40
0.0
 40
0.0
 40
0.2
 40
0.2
 40
0.2
 40
0.2
 40
0.4
 40
0.4
 40
0.4
 40
0.4
 40
0.6
 40
0.6
 40
0.6
 40
0.6
 40
1.0
 40
1.0
 40
1.0
 40
1.0
 10
-263.6306
 20
79.6581
 30
0.0
 10
-269.8162
 20
79.6581
 30
0.0
 10
-274.8306
 20
84.6725
 30
0.0
 10
-274.8306
 20
90.8581
 30
0.0
 10
-274.8306
 20
90.8581
 30
0.0
 10
-274.8306
 20
97.0437
 30
0.0
 10
-269.8162
 20
102.0581
 30
0.0
 10
-263.6306
 20
102.0581
 30
0.0
 10
-263.6306
 20
102.0581
 30
0.0
 10
-257.445
 20
102.0581
 30
0.0
 10
-252.4306
 20
97.0437
 30
0.0
 10
-252.4306
 20
90.8581
 30
0.0
 10
-252.4306
 20
90.8581
 30
0.0
 10
-252.4306
 20
84.6725
 30
0.0
 10
-257.445
 20
79.6581
 30
0.0
 10
-263.6306
 20
79.6581
 30
0.0
  0
ELLIPSE
  5
7D
330
1F
100
AcDbEntity
  8
Layer 1
 62
     5
370
     9
100
AcDbEllipse
 10
-263.6306
 20
90.8581
 30
0.0
 11
0.0
 21
2.0
 31
0.0
210
0.0
220
0.0
230
1.0
 40
1.0
 41
0.0
 42
6.283185307179586
  0
SPLINE
  5
7E
330
1F
100
AcDbEntity
  8
Layer 1
 62
     4
370
     9
100
AcDbSpline
210
0.0
220
0.0
230
1.0
 70
    11
 71
     3
 72
    20
 73
    16
 74
     0
 42
0.000000001
 43
0.0000000001
 40
0.0
 40
0.0
 40
0.0
 40
0.0
 40
0.2
 40
0.2
 40
0.2
 40
0.2
 40
0.4
 40
0.4
 40
0.4
 40
0.4
 40
0.6
 40
0.6
 40
0.6
 40
0.6
 40
1.0
 40
1.0
 40
1.0
 40
1.0
 10
-153.8328
 20
167.5165
 30
0.0
 10
-162.117
 20
167.5165
 30
0.0
 10
-168.8328
 20
174.2323
 30
0.0
 10
-168.8328
 20
182.5165
 30
0.0
 10
-168.8328
 20
182.5165
 30
0.0
 10
-168.8328
 20
190.8007
 30
0.0
 10
-162.117
 20
197.5165
 30
0.0
 10
-153.8328
 20
197.5165
 30
0.0
 10
-153.8328
 20
197.5165
 30
0.0
 10
-145.5486
 20
197.5165
 30
0.0
 10
-138.8328
 20
190.8007
 30
0.0
 10
-138.8328
 20
182.5165
 30
0.0
 10
-138.8328
 20
182.5165
 30
0.0
 10
-138.8328
 20
174.2323
 30
0.0
 10
-145.5486
 20
167.5165
 30
0.0
 10
-153.8328
 20
167.5165
 30
0.0
  0
ELLIPSE
  5
7F
330
1F
100
AcDbEntity
  8
Layer 1
 62
     5
370
     9
100
AcDbEllipse
 10
-153.8328
 20
182.5165
 30
0.0
 11
0.0
 21
1.9
 31
0.0
210
0.0
220
0.0
230
1.0
 40
1.0
 41
0.0
 42
6.283185307179586
  0
ELLIPSE
  5
80
330
1F
100
AcDbEntity
  8
Layer 1
 62
     2
370
     9
100
AcDbEllipse
 10
-329.7746
 20
117.1875
 30
0.0
 11
0.0
 21
12.5
 31
0.0
210
0.0
220
0.0
230
1.0
 40
1.0
 41
0.0
 42
6.283185307179586
  0
ELLIPSE
  5
81
330
1F
100
AcDbEntity
  8
Layer 1
 62
     2
370
     9
100
AcDbEllipse
 10
-54.7746
 20
117.1875
 30
0.0
 11
0.0
 21
12.5
 31
0.0
210
0.0
220
0.0
230
1.0
 40
1.0
 41
0.0
 42
6.283185307179586
  0
ELLIPSE
  5
82
330
1F
100
AcDbEntity
  8
Layer 1
 62
     5
370
     9
100
AcDbEllipse
 10
-54.7746
 20
117.1875
 30
0.0
 11
0.0
 21
2.0
 31
0.0
210
0.0
220
0.0
230
1.0
 40
1.0
 41
0.0
 42
6.283185307179586
  0
ELLIPSE
  5
83
330
1F
100
AcDbEntity
  8
Layer 1
 62
     5
370
     9
100
AcDbEllipse
 10
-329.7746
 20
117.1875
 30
0.0
 11
0.0
 21
2.0
 31
0.0
210
0.0
220
0.0
230
1.0
 40
1.0
 41
0.0
 42
6.283185307179586
  0
SPLINE
  5
84
330
1F
100
AcDbEntity
  8
Layer 1
 62
     4
370
     9
100
AcDbSpline
210
0.0
220
0.0
230
1.0
 70
    11
 71
     3
 72
   100
 73
    96
 74
     0
 42
0.000000001
 43
0.0000000001
 40
0.0
 40
0.0
 40
0.0
 40
0.0
 40
0.04
 40
0.04
 40
0.04
 40
0.04
 40
0.08
 40
0.08
 40
0.08
 40
0.08
 40
0.12
 40
0.12
 40
0.12
 40
0.12
 40
0.16
 40
0.16
 40
0.16
 40
0.16
 40
0.2
 40
0.2
 40
0.2
 40
0.2
 40
0.24
 40
0.24
 40
0.24
 40
0.24
 40
0.28
 40
0.28
 40
0.28
 40
0.28
 40
0.32
 40
0.32
 40
0.32
 40
0.32
 40
0.36
 40
0.36
 40
0.36
 40
0.36
 40
0.4
 40
0.4
 40
0.4
 40
0.4
 40
0.44
 40
0.44
 40
0.44
 40
0.44
 40
0.48
 40
0.48
 40
0.48
 40
0.48
 40
0.52
 40
0.52
 40
0.52
 40
0.52
 40
0.56
 40
0.56
 40
0.56
 40
0.56
 40
0.6
 40
0.6
 40
0.6
 40
0.6
 40
0.64
 40
0.64
 40
0.64
 40
0.64
 40
0.68
 40
0.68
 40
0.68
 40
0.68
 40
0.72
 40
0.72
 40
0.72
 40
0.72
 40
0.76
 40
0.76
 40
0.76
 40
0.76
 40
0.8
 40
0.8
 40
0.8
 40
0.8
 40
0.84
 40
0.84
 40
0.84
 40
0.84
 40
0.88
 40
0.88
 40
0.88
 40
0.88
 40
0.92
 40
0.92
 40
0.92
 40
0.92
 40
1.0
 40
1.0
 40
1.0
 40
1.0
 10
-94.675
 20
76.6874
 30
0.0
 10
-94.675
 20
76.6874
 30
0.0
 10
-94.675
 20
72.6874
 30
0.0
 10
-94.675
 20
72.6874
 30
0.0
 10
-94.675
 20
72.6874
 30
0.0
 10
-94.675
 20
72.6874
 30
0.0
 10
-104.875
 20
72.6874
 30
0.0
 10
-104.875
 20
72.6874
 30
0.0
 10
-104.875
 20
72.6874
 30
0.0
 10
-104.875
 20
72.6874
 30
0.0
 10
-104.875
 20
76.6874
 30
0.0
 10
-104.875
 20
76.6874
 30
0.0
 10
-104.875
 20
76.6874
 30
0.0
 10
-104.875
 20
76.6874
 30
0.0
 10
-107.275
 20
76.6874
 30
0.0
 10
-107.275
 20
76.6874
 30
0.0
 10
-107.275
 20
76.6874
 30
0.0
 10
-107.275
 20
76.6874
 30
0.0
 10
-107.275
 20
104.0589
 30
0.0
 10
-107.275
 20
104.0589
 30
0.0
 10
-107.275
 20
104.0589
 30
0.0
 10
-107.275
 20
104.0589
 30
0.0
 10
-277.275
 20
104.0589
 30
0.0
 10
-277.275
 20
104.0589
 30
0.0
 10
-277.275
 20
104.0589
 30
0.0
 10
-277.275
 20
104.0589
 30
0.0
 10
-277.275
 20
76.6874
 30
0.0
 10
-277.275
 20
76.6874
 30
0.0
 10
-277.275
 20
76.6874
 30
0.0
 10
-277.275
 20
76.6874
 30
0.0
 10
-279.675
 20
76.6874
 30
0.0
 10
-279.675
 20
76.6874
 30
0.0
 10
-279.675
 20
76.6874
 30
0.0
 10
-279.675
 20
76.6874
 30
0.0
 10
-279.675
 20
72.6874
 30
0.0
 10
-279.675
 20
72.6874
 30
0.0
 10
-279.675
 20
72.6874
 30
0.0
 10
-279.675
 20
72.6874
 30
0.0
 10
-289.875
 20
72.6874
 30
0.0
 10
-289.875
 20
72.6874
 30
0.0
 10
-289.875
 20
72.6874
 30
0.0
 10
-289.875
 20
72.6874
 30
0.0
 10
-289.875
 20
76.6874
 30
0.0
 10
-289.875
 20
76.6874
 30
0.0
 10
-289.875
 20
76.6874
 30
0.0
 10
-289.875
 20
76.6874
 30
0.0
 10
-292.275
 20
76.6874
 30
0.0
 10
-292.275
 20
76.6874
 30
0.0
 10
-292.275
 20
76.6874
 30
0.0
 10
-292.275
 20
76.6874
 30
0.0
 10
-292.275
 20
104.0589
 30
0.0
 10
-292.275
 20
104.0589
 30
0.0
 10
-292.275
 20
104.0589
 30
0.0
 10
-292.275
 20
104.0589
 30
0.0
 10
-337.2746
 20
104.0589
 30
0.0
 10
-337.2746
 20
104.0589
 30
0.0
 10
-337.2746
 20
104.0589
 30
0.0
 10
-340.0285
 20
104.0589
 30
0.0
 10
-342.2746
 20
106.305
 30
0.0
 10
-342.2746
 20
109.0589
 30
0.0
 10
-342.2746
 20
109.0589
 30
0.0
 10
-342.2746
 20
109.0589
 30
0.0
 10
-342.2746
 20
129.0589
 30
0.0
 10
-342.2746
 20
129.0589
 30
0.0
 10
-342.2746
 20
129.0589
 30
0.0
 10
-342.2746
 20
131.8128
 30
0.0
 10
-340.0285
 20
134.0589
 30
0.0
 10
-337.2746
 20
134.0589
 30
0.0
 10
-337.2746
 20
134.0589
 30
0.0
 10
-337.2746
 20
134.0589
 30
0.0
 10
-47.2746
 20
134.0589
 30
0.0
 10
-47.2746
 20
134.0589
 30
0.0
 10
-47.2746
 20
134.0589
 30
0.0
 10
-44.5207
 20
134.0589
 30
0.0
 10
-42.2746
 20
131.8128
 30
0.0
 10
-42.2746
 20
129.0589
 30
0.0
 10
-42.2746
 20
129.0589
 30
0.0
 10
-42.2746
 20
129.0589
 30
0.0
 10
-42.2746
 20
109.0589
 30
0.0
 10
-42.2746
 20
109.0589
 30
0.0
 10
-42.2746
 20
109.0589
 30
0.0
 10
-42.2746
 20
106.305
 30
0.0
 10
-44.5207
 20
104.0589
 30
0.0
 10
-47.2746
 20
104.0589
 30
0.0
 10
-47.2746
 20
104.0589
 30
0.0
 10
-47.2746
 20
104.0589
 30
0.0
 10
-92.275
 20
104.0589
 30
0.0
 10
-92.275
 20
104.0589
 30
0.0
 10
-92.275
 20
104.0589
 30
0.0
 10
-92.275
 20
104.0589
 30
0.0
 10
-92.275
 20
76.6874
 30
0.0
 10
-92.275
 20
76.6874
 30
0.0
 10
-92.275
 20
76.6874
 30
0.0
 10
-92.275
 20
76.6874
 30
0.0
 10
-94.675
 20
76.6874
 30
0.0
 10
-94.675
 20
76.6874
 30
0.0
  0
LWPOLYLINE
  5
85
330
1F
100
AcDbEntity
  8
Layer 1
 62
     5
370
     9
100
AcDbPolyline
 90
        5
 70
     1
 43
0.0
 10
-305.832
 20
125.6875
 10
-295.952
 20
125.6875
 10
-295.952
 20
129.6875
 10
-305.832
 20
129.6875
 10
-305.832
 20
125.6875
  0
LWPOLYLINE
  5
86
330
1F
100
AcDbEntity
  8
Layer 1
 62
     5
370
     9
100
AcDbPolyline
 90
        5
 70
     1
 43
0.0
 10
-87.797
 20
125.6875
 10
-77.917
 20
125.6875
 10
-77.917
 20
129.6875
 10
-87.797
 20
129.6875
 10
-87.797
 20
125.6875
  0
LWPOLYLINE
  5
87
330
1F
100
AcDbEntity
  8
Layer 1
 62
     5
370
     9
100
AcDbPolyline
 90
        5
 70
     1
 43
0.0
 10
-196.8144
 20
125.6875
 10
-186.9344
 20
125.6875
 10
-186.9344
 20
129.6875
 10
-196.8144
 20
129.6875
 10
-196.8144
 20
125.6875
  0
ELLIPSE
  5
88
330
1F
100
AcDbEntity
  8
Layer 1
 62
     5
370
     9
100
AcDbEllipse
 10
-263.7744
 20
117.1875
 30
0.0
 11
0.0
 21
2.0
 31
0.0
210
0.0
220
0.0
230
1.0
 40
1.0
 41
0.0
 42
6.283185307179586
  0
ELLIPSE
  5
89
330
1F
100
AcDbEntity
  8
Layer 1
 62
     5
370
     9
100
AcDbEllipse
 10
-291.7745
 20
117.1875
 30
0.0
 11
0.0
 21
2.0
 31
0.0
210
0.0
220
0.0
230
1.0
 40
1.0
 41
0.0
 42
6.283185307179586
  0
ELLIPSE
  5
8A
330
1F
100
AcDbEntity
  8
Layer 1
 62
     5
370
     9
100
AcDbEllipse
 10
-301.7745
 20
117.1875
 30
0.0
 11
0.0
 21
2.0
 31
0.0
210
0.0
220
0.0
230
1.0
 40
1.0
 41
0.0
 42
6.283185307179586
  0
ELLIPSE
  5
8B
330
1F
100
AcDbEntity
  8
Layer 1
 62
     5
370
     9
100
AcDbEllipse
 10
-273.7744
 20
117.1875
 30
0.0
 11
0.0
 21
2.0
 31
0.0
210
0.0
220
0.0
230
1.0
 40
1.0
 41
0.0
 42
6.283185307179586
  0
ELLIPSE
  5
8C
330
1F
100
AcDbEntity
  8
Layer 1
 62
     2
370
     9
100
AcDbEllipse
 10
-329.7746
 20
150.9303
 30
0.0
 11
0.0
 21
12.5
 31
0.0
210
0.0
220
0.0
230
1.0
 40
1.0
 41
0.0
 42
6.283185307179586
  0
ELLIPSE
  5
8D
330
1F
100
AcDbEntity
  8
Layer 1
 62
     2
370
     9
100
AcDbEllipse
 10
-54.7746
 20
150.9303
 30
0.0
 11
0.0
 21
12.5
 31
0.0
210
0.0
220
0.0
230
1.0
 40
1.0
 41
0.0
 42
6.283185307179586
  0
ELLIPSE
  5
8E
330
1F
100
AcDbEntity
  8
Layer 1
 62
     5
370
     9
100
AcDbEllipse
 10
-54.7746
 20
150.9303
 30
0.0
 11
0.0
 21
2.0
 31
0.0
210
0.0
220
0.0
230
1.0
 40
1.0
 41
0.0
 42
6.283185307179586
  0
ELLIPSE
  5
8F
330
1F
100
AcDbEntity
  8
Layer 1
 62
     5
370
     9
100
AcDbEllipse
 10
-329.7746
 20
150.9303
 30
0.0
 11
0.0
 21
2.0
 31
0.0
210
0.0
220
0.0
230
1.0
 40
1.0
 41
0.0
 42
6.283185307179586
  0
SPLINE
  5
90
330
1F
100
AcDbEntity
  8
Layer 1
 62
     4
370
     9
100
AcDbSpline
210
0.0
220
0.0
230
1.0
 70
     8
 71
     3
 72
    96
 73
    92
 74
     0
 42
0.000000001
 43
0.0000000001
 40
0.0
 40
0.0
 40
0.0
 40
0.0
 40
0.0416666666666667
 40
0.0416666666666667
 40
0.0416666666666667
 40
0.0416666666666667
 40
0.0833333333333333
 40
0.0833333333333333
 40
0.0833333333333333
 40
0.0833333333333333
 40
0.125
 40
0.125
 40
0.125
 40
0.125
 40
0.1666666666666667
 40
0.1666666666666667
 40
0.1666666666666667
 40
0.1666666666666667
 40
0.2083333333333333
 40
0.2083333333333333
 40
0.2083333333333333
 40
0.2083333333333333
 40
0.25
 40
0.25
 40
0.25
 40
0.25
 40
0.2916666666666667
 40
0.2916666666666667
 40
0.2916666666666667
 40
0.2916666666666667
 40
0.3333333333333333
 40
0.3333333333333333
 40
0.3333333333333333
 40
0.3333333333333333
 40
0.375
 40
0.375
 40
0.375
 40
0.375
 40
0.4166666666666667
 40
0.4166666666666667
 40
0.4166666666666667
 40
0.4166666666666667
 40
0.4583333333333333
 40
0.4583333333333333
 40
0.4583333333333333
 40
0.4583333333333333
 40
0.5
 40
0.5
 40
0.5
 40
0.5
 40
0.5416666666666666
 40
0.5416666666666666
 40
0.5416666666666666
 40
0.5416666666666666
 40
0.5833333333333334
 40
0.5833333333333334
 40
0.5833333333333334
 40
0.5833333333333334
 40
0.625
 40
0.625
 40
0.625
 40
0.625
 40
0.6666666666666666
 40
0.6666666666666666
 40
0.6666666666666666
 40
0.6666666666666666
 40
0.7083333333333334
 40
0.7083333333333334
 40
0.7083333333333334
 40
0.7083333333333334
 40
0.75
 40
0.75
 40
0.75
 40
0.75
 40
0.7916666666666666
 40
0.7916666666666666
 40
0.7916666666666666
 40
0.7916666666666666
 40
0.8333333333333334
 40
0.8333333333333334
 40
0.8333333333333334
 40
0.8333333333333334
 40
0.875
 40
0.875
 40
0.875
 40
0.875
 40
0.9166666666666666
 40
0.9166666666666666
 40
0.9166666666666666
 40
0.9166666666666666
 40
1.0
 40
1.0
 40
1.0
 40
1.0
 10
-47.2746
 20
134.0589
 30
0.0
 10
-44.5207
 20
134.0589
 30
0.0
 10
-42.2746
 20
136.305
 30
0.0
 10
-42.2746
 20
139.0589
 30
0.0
 10
-42.2746
 20
139.0589
 30
0.0
 10
-42.2746
 20
139.0589
 30
0.0
 10
-42.2746
 20
159.0589
 30
0.0
 10
-42.2746
 20
159.0589
 30
0.0
 10
-42.2746
 20
159.0589
 30
0.0
 10
-42.2746
 20
161.8128
 30
0.0
 10
-44.5207
 20
164.0589
 30
0.0
 10
-47.2746
 20
164.0589
 30
0.0
 10
-47.2746
 20
164.0589
 30
0.0
 10
-47.2746
 20
164.0589
 30
0.0
 10
-92.275
 20
164.0589
 30
0.0
 10
-92.275
 20
164.0589
 30
0.0
 10
-92.275
 20
164.0589
 30
0.0
 10
-92.275
 20
164.0589
 30
0.0
 10
-92.275
 20
191.4304
 30
0.0
 10
-92.275
 20
191.4304
 30
0.0
 10
-92.275
 20
191.4304
 30
0.0
 10
-92.275
 20
191.4304
 30
0.0
 10
-94.675
 20
191.4304
 30
0.0
 10
-94.675
 20
191.4304
 30
0.0
 10
-94.675
 20
191.4304
 30
0.0
 10
-94.675
 20
191.4304
 30
0.0
 10
-94.675
 20
195.4304
 30
0.0
 10
-94.675
 20
195.4304
 30
0.0
 10
-94.675
 20
195.4304
 30
0.0
 10
-94.675
 20
195.4304
 30
0.0
 10
-104.875
 20
195.4304
 30
0.0
 10
-104.875
 20
195.4304
 30
0.0
 10
-104.875
 20
195.4304
 30
0.0
 10
-104.875
 20
195.4304
 30
0.0
 10
-104.875
 20
191.4304
 30
0.0
 10
-104.875
 20
191.4304
 30
0.0
 10
-104.875
 20
191.4304
 30
0.0
 10
-104.875
 20
191.4304
 30
0.0
 10
-107.275
 20
191.4304
 30
0.0
 10
-107.275
 20
191.4304
 30
0.0
 10
-107.275
 20
191.4304
 30
0.0
 10
-107.275
 20
191.4304
 30
0.0
 10
-107.275
 20
164.0589
 30
0.0
 10
-107.275
 20
164.0589
 30
0.0
 10
-107.275
 20
164.0589
 30
0.0
 10
-107.275
 20
164.0589
 30
0.0
 10
-277.275
 20
164.0589
 30
0.0
 10
-277.275
 20
164.0589
 30
0.0
 10
-277.275
 20
164.0589
 30
0.0
 10
-277.275
 20
164.0589
 30
0.0
 10
-277.275
 20
191.4304
 30
0.0
 10
-277.275
 20
191.4304
 30
0.0
 10
-277.275
 20
191.4304
 30
0.0
 10
-277.275
 20
191.4304
 30
0.0
 10
-279.675
 20
191.4304
 30
0.0
 10
-279.675
 20
191.4304
 30
0.0
 10
-279.675
 20
191.4304
 30
0.0
 10
-279.675
 20
191.4304
 30
0.0
 10
-279.675
 20
195.4304
 30
0.0
 10
-279.675
 20
195.4304
 30
0.0
 10
-279.675
 20
195.4304
 30
0.0
 10
-279.675
 20
195.4304
 30
0.0
 10
-289.875
 20
195.4304
 30
0.0
 10
-289.875
 20
195.4304
 30
0.0
 10
-289.875
 20
195.4304
 30
0.0
 10
-289.875
 20
195.4304
 30
0.0
 10
-289.875
 20
191.4304
 30
0.0
 10
-289.875
 20
191.4304
 30
0.0
 10
-289.875
 20
191.4304
 30
0.0
 10
-289.875
 20
191.4304
 30
0.0
 10
-292.275
 20
191.4304
 30
0.0
 10
-292.275
 20
191.4304
 30
0.0
 10
-292.275
 20
191.4304
 30
0.0
 10
-292.275
 20
191.4304
 30
0.0
 10
-292.275
 20
164.0589
 30
0.0
 10
-292.275
 20
164.0589
 30
0.0
 10
-292.275
 20
164.0589
 30
0.0
 10
-292.275
 20
164.0589
 30
0.0
 10
-337.2746
 20
164.0589
 30
0.0
 10
-337.2746
 20
164.0589
 30
0.0
 10
-337.2746
 20
164.0589
 30
0.0
 10
-340.0285
 20
164.0589
 30
0.0
 10
-342.2746
 20
161.8128
 30
0.0
 10
-342.2746
 20
159.0589
 30
0.0
 10
-342.2746
 20
159.0589
 30
0.0
 10
-342.2746
 20
159.0589
 30
0.0
 10
-342.2746
 20
139.0589
 30
0.0
 10
-342.2746
 20
139.0589
 30
0.0
 10
-342.2746
 20
139.0589
 30
0.0
 10
-342.2746
 20
136.305
 30
0.0
 10
-340.0285
 20
134.0589
 30
0.0
 10
-337.2746
 20
134.0589
 30
0.0
  0
LWPOLYLINE
  5
91
330
1F
100
AcDbEntity
  8
Layer 1
 62
     5
370
     9
100
AcDbPolyline
 90
        5
 70
     1
 43
0.0
 10
-305.832
 20
138.4303
 10
-295.952
 20
138.4303
 10
-295.952
 20
142.4303
 10
-305.832
 20
142.4303
 10
-305.832
 20
138.4303
  0
LWPOLYLINE
  5
92
330
1F
100
AcDbEntity
  8
Layer 1
 62
     5
370
     9
100
AcDbPolyline
 90
        5
 70
     1
 43
0.0
 10
-87.797
 20
138.4303
 10
-77.917
 20
138.4303
 10
-77.917
 20
142.4303
 10
-87.797
 20
142.4303
 10
-87.797
 20
138.4303
  0
LWPOLYLINE
  5
93
330
1F
100
AcDbEntity
  8
Layer 1
 62
     5
370
     9
100
AcDbPolyline
 90
        5
 70
     1
 43
0.0
 10
-196.8144
 20
138.4303
 10
-186.9344
 20
138.4303
 10
-186.9344
 20
142.4303
 10
-196.8144
 20
142.4303
 10
-196.8144
 20
138.4303
  0
ELLIPSE
  5
94
330
1F
100
AcDbEntity
  8
Layer 1
 62
     5
370
     9
100
AcDbEllipse
 10
-263.7744
 20
150.9303
 30
0.0
 11
0.0
 21
2.0
 31
0.0
210
0.0
220
0.0
230
1.0
 40
1.0
 41
0.0
 42
6.283185307179586
  0
ELLIPSE
  5
95
330
1F
100
AcDbEntity
  8
Layer 1
 62
     5
370
     9
100
AcDbEllipse
 10
-291.7745
 20
150.9303
 30
0.0
 11
0.0
 21
2.0
 31
0.0
210
0.0
220
0.0
230
1.0
 40
1.0
 41
0.0
 42
6.283185307179586
  0
ELLIPSE
  5
96
330
1F
100
AcDbEntity
  8
Layer 1
 62
     5
370
     9
100
AcDbEllipse
 10
-301.7745
 20
150.9303
 30
0.0
 11
0.0
 21
2.0
 31
0.0
210
0.0
220
0.0
230
1.0
 40
1.0
 41
0.0
 42
6.283185307179586
  0
ELLIPSE
  5
97
330
1F
100
AcDbEntity
  8
Layer 1
 62
     5
370
     9
100
AcDbEllipse
 10
-273.7744
 20
150.9303
 30
0.0
 11
0.0
 21
2.0
 31
0.0
210
0.0
220
0.0
230
1.0
 40
1.0
 41
0.0
 42
6.283185307179586
  0
SPLINE
  5
98
330
1F
100
AcDbEntity
  8
Layer 1
 62
     4
370
     9
100
AcDbSpline
210
0.0
220
0.0
230
1.0
 70
    11
 71
     3
 72
    20
 73
    16
 74
     0
 42
0.000000001
 43
0.0000000001
 40
0.0
 40
0.0
 40
0.0
 40
0.0
 40
0.2
 40
0.2
 40
0.2
 40
0.2
 40
0.4
 40
0.4
 40
0.4
 40
0.4
 40
0.6
 40
0.6
 40
0.6
 40
0.6
 40
1.0
 40
1.0
 40
1.0
 40
1.0
 10
-242.1994
 20
86.0922
 30
0.0
 10
-246.3415
 20
86.0922
 30
0.0
 10
-249.6994
 20
89.4501
 30
0.0
 10
-249.6994
 20
93.5922
 30
0.0
 10
-249.6994
 20
93.5922
 30
0.0
 10
-249.6994
 20
97.7343
 30
0.0
 10
-246.3415
 20
101.0922
 30
0.0
 10
-242.1994
 20
101.0922
 30
0.0
 10
-242.1994
 20
101.0922
 30
0.0
 10
-238.0573
 20
101.0922
 30
0.0
 10
-234.6994
 20
97.7343
 30
0.0
 10
-234.6994
 20
93.5922
 30
0.0
 10
-234.6994
 20
93.5922
 30
0.0
 10
-234.6994
 20
89.4501
 30
0.0
 10
-238.0573
 20
86.0922
 30
0.0
 10
-242.1994
 20
86.0922
 30
0.0
  0
ELLIPSE
  5
99
330
1F
100
AcDbEntity
  8
Layer 1
 62
     5
370
     9
100
AcDbEllipse
 10
-242.1994
 20
93.5922
 30
0.0
 11
0.0
 21
1.94
 31
0.0
210
0.0
220
0.0
230
1.0
 40
1.0
 41
0.0
 42
6.283185307179586
  0
SPLINE
  5
9A
330
1F
100
AcDbEntity
  8
Layer 1
 62
     4
370
     9
100
AcDbSpline
210
0.0
220
0.0
230
1.0
 70
    11
 71
     3
 72
    20
 73
    16
 74
     0
 42
0.000000001
 43
0.0000000001
 40
0.0
 40
0.0
 40
0.0
 40
0.0
 40
0.2
 40
0.2
 40
0.2
 40
0.2
 40
0.4
 40
0.4
 40
0.4
 40
0.4
 40
0.6
 40
0.6
 40
0.6
 40
0.6
 40
1.0
 40
1.0
 40
1.0
 40
1.0
 10
-226.2361
 20
86.4449
 30
0.0
 10
-230.3782
 20
86.4449
 30
0.0
 10
-233.7361
 20
89.8028
 30
0.0
 10
-233.7361
 20
93.9449
 30
0.0
 10
-233.7361
 20
93.9449
 30
0.0
 10
-233.7361
 20
98.087
 30
0.0
 10
-230.3782
 20
101.4449
 30
0.0
 10
-226.2361
 20
101.4449
 30
0.0
 10
-226.2361
 20
101.4449
 30
0.0
 10
-222.094
 20
101.4449
 30
0.0
 10
-218.7361
 20
98.087
 30
0.0
 10
-218.7361
 20
93.9449
 30
0.0
 10
-218.7361
 20
93.9449
 30
0.0
 10
-218.7361
 20
89.8028
 30
0.0
 10
-222.094
 20
86.4449
 30
0.0
 10
-226.2361
 20
86.4449
 30
0.0
  0
ELLIPSE
  5
9B
330
1F
100
AcDbEntity
  8
Layer 1
 62
     5
370
     9
100
AcDbEllipse
 10
-226.2361
 20
93.9449
 30
0.0
 11
0.0
 21
1.94
 31
0.0
210
0.0
220
0.0
230
1.0
 40
1.0
 41
0.0
 42
6.283185307179586
  0
SPLINE
  5
9C
330
1F
100
AcDbEntity
  8
Layer 1
 62
     4
370
     9
100
AcDbSpline
210
0.0
220
0.0
230
1.0
 70
    11
 71
     3
 72
    20
 73
    16
 74
     0
 42
0.000000001
 43
0.0000000001
 40
0.0
 40
0.0
 40
0.0
 40
0.0
 40
0.2
 40
0.2
 40
0.2
 40
0.2
 40
0.4
 40
0.4
 40
0.4
 40
0.4
 40
0.6
 40
0.6
 40
0.6
 40
0.6
 40
1.0
 40
1.0
 40
1.0
 40
1.0
 10
-210.2728
 20
86.7976
 30
0.0
 10
-214.4149
 20
86.7976
 30
0.0
 10
-217.7728
 20
90.1555
 30
0.0
 10
-217.7728
 20
94.2976
 30
0.0
 10
-217.7728
 20
94.2976
 30
0.0
 10
-217.7728
 20
98.4397
 30
0.0
 10
-214.4149
 20
101.7976
 30
0.0
 10
-210.2728
 20
101.7976
 30
0.0
 10
-210.2728
 20
101.7976
 30
0.0
 10
-206.1307
 20
101.7976
 30
0.0
 10
-202.7728
 20
98.4397
 30
0.0
 10
-202.7728
 20
94.2976
 30
0.0
 10
-202.7728
 20
94.2976
 30
0.0
 10
-202.7728
 20
90.1555
 30
0.0
 10
-206.1307
 20
86.7976
 30
0.0
 10
-210.2728
 20
86.7976
 30
0.0
  0
ELLIPSE
  5
9D
330
1F
100
AcDbEntity
  8
Layer 1
 62
     5
370
     9
100
AcDbEllipse
 10
-210.2728
 20
94.2976
 30
0.0
 11
0.0
 21
1.94
 31
0.0
210
0.0
220
0.0
230
1.0
 40
1.0
 41
0.0
 42
6.283185307179586
  0
SPLINE
  5
9E
330
1F
100
AcDbEntity
  8
Layer 1
 62
     4
370
     9
100
AcDbSpline
210
0.0
220
0.0
230
1.0
 70
    11
 71
     3
 72
    20
 73
    16
 74
     0
 42
0.000000001
 43
0.0000000001
 40
0.0
 40
0.0
 40
0.0
 40
0.0
 40
0.2
 40
0.2
 40
0.2
 40
0.2
 40
0.4
 40
0.4
 40
0.4
 40
0.4
 40
0.6
 40
0.6
 40
0.6
 40
0.6
 40
1.0
 40
1.0
 40
1.0
 40
1.0
 10
-194.3095
 20
87.1503
 30
0.0
 10
-198.4516
 20
87.1503
 30
0.0
 10
-201.8095
 20
90.5082
 30
0.0
 10
-201.8095
 20
94.6503
 30
0.0
 10
-201.8095
 20
94.6503
 30
0.0
 10
-201.8095
 20
98.7924
 30
0.0
 10
-198.4516
 20
102.1503
 30
0.0
 10
-194.3095
 20
102.1503
 30
0.0
 10
-194.3095
 20
102.1503
 30
0.0
 10
-190.1674
 20
102.1503
 30
0.0
 10
-186.8095
 20
98.7924
 30
0.0
 10
-186.8095
 20
94.6503
 30
0.0
 10
-186.8095
 20
94.6503
 30
0.0
 10
-186.8095
 20
90.5082
 30
0.0
 10
-190.1674
 20
87.1503
 30
0.0
 10
-194.3095
 20
87.1503
 30
0.0
  0
ELLIPSE
  5
9F
330
1F
100
AcDbEntity
  8
Layer 1
 62
     5
370
     9
100
AcDbEllipse
 10
-194.3095
 20
94.6503
 30
0.0
 11
0.0
 21
1.94
 31
0.0
210
0.0
220
0.0
230
1.0
 40
1.0
 41
0.0
 42
6.283185307179586
  0
SPLINE
  5
A0
330
1F
100
AcDbEntity
  8
Layer 1
 62
     4
370
     9
100
AcDbSpline
210
0.0
220
0.0
230
1.0
 70
    11
 71
     3
 72
    20
 73
    16
 74
     0
 42
0.000000001
 43
0.0000000001
 40
0.0
 40
0.0
 40
0.0
 40
0.0
 40
0.2
 40
0.2
 40
0.2
 40
0.2
 40
0.4
 40
0.4
 40
0.4
 40
0.4
 40
0.6
 40
0.6
 40
0.6
 40
0.6
 40
1.0
 40
1.0
 40
1.0
 40
1.0
 10
-350.0
 20
-200.0
 30
0.0
 10
-350.0
 20
-200.0
 30
0.0
 10
0.0
 20
-200.0
 30
0.0
 10
0.0
 20
-200.0
 30
0.0
 10
0.0
 20
-200.0
 30
0.0
 10
0.0
 20
-200.0
 30
0.0
 10
0.0
 20
-50.0
 30
0.0
 10
0.0
 20
-50.0
 30
0.0
 10
0.0
 20
-50.0
 30
0.0
 10
0.0
 20
-50.0
 30
0.0
 10
-350.0
 20
-50.0
 30
0.0
 10
-350.0
 20
-50.0
 30
0.0
 10
-350.0
 20
-50.0
 30
0.0
 10
-350.0
 20
-50.0
 30
0.0
 10
-350.0
 20
-200.0
 30
0.0
 10
-350.0
 20
-200.0
 30
0.0
  0
SPLINE
  5
A1
330
1F
100
AcDbEntity
  8
Layer 1
 62
     5
370
     9
100
AcDbSpline
210
0.0
220
0.0
230
1.0
 70
    11
 71
     3
 72
    20
 73
    16
 74
     0
 42
0.000000001
 43
0.0000000001
 40
0.0
 40
0.0
 40
0.0
 40
0.0
 40
0.2
 40
0.2
 40
0.2
 40
0.2
 40
0.4
 40
0.4
 40
0.4
 40
0.4
 40
0.6
 40
0.6
 40
0.6
 40
0.6
 40
1.0
 40
1.0
 40
1.0
 40
1.0
 10
-55.5595
 20
-59.3486
 30
0.0
 10
-55.5595
 20
-59.3486
 30
0.0
 10
-65.4395
 20
-59.3486
 30
0.0
 10
-65.4395
 20
-59.3486
 30
0.0
 10
-65.4395
 20
-59.3486
 30
0.0
 10
-65.4395
 20
-59.3486
 30
0.0
 10
-65.4395
 20
-55.3486
 30
0.0
 10
-65.4395
 20
-55.3486
 30
0.0
 10
-65.4395
 20
-55.3486
 30
0.0
 10
-65.4395
 20
-55.3486
 30
0.0
 10
-55.5595
 20
-55.3486
 30
0.0
 10
-55.5595
 20
-55.3486
 30
0.0
 10
-55.5595
 20
-55.3486
 30
0.0
 10
-55.5595
 20
-55.3486
 30
0.0
 10
-55.5595
 20
-59.3486
 30
0.0
 10
-55.5595
 20
-59.3486
 30
0.0
  0
SPLINE
  5
A2
330
1F
100
AcDbEntity
  8
Layer 1
 62
     5
370
     9
100
AcDbSpline
210
0.0
220
0.0
230
1.0
 70
    11
 71
     3
 72
    20
 73
    16
 74
     0
 42
0.000000001
 43
0.0000000001
 40
0.0
 40
0.0
 40
0.0
 40
0.0
 40
0.2
 40
0.2
 40
0.2
 40
0.2
 40
0.4
 40
0.4
 40
0.4
 40
0.4
 40
0.6
 40
0.6
 40
0.6
 40
0.6
 40
1.0
 40
1.0
 40
1.0
 40
1.0
 10
-240.5595
 20
-59.3486
 30
0.0
 10
-240.5595
 20
-59.3486
 30
0.0
 10
-250.4395
 20
-59.3486
 30
0.0
 10
-250.4395
 20
-59.3486
 30
0.0
 10
-250.4395
 20
-59.3486
 30
0.0
 10
-250.4395
 20
-59.3486
 30
0.0
 10
-250.4395
 20
-55.3486
 30
0.0
 10
-250.4395
 20
-55.3486
 30
0.0
 10
-250.4395
 20
-55.3486
 30
0.0
 10
-250.4395
 20
-55.3486
 30
0.0
 10
-240.5595
 20
-55.3486
 30
0.0
 10
-240.5595
 20
-55.3486
 30
0.0
 10
-240.5595
 20
-55.3486
 30
0.0
 10
-240.5595
 20
-55.3486
 30
0.0
 10
-240.5595
 20
-59.3486
 30
0.0
 10
-240.5595
 20
-59.3486
 30
0.0
  0
SPLINE
  5
A3
330
1F
100
AcDbEntity
  8
Layer 1
 62
     5
370
     9
100
AcDbSpline
210
0.0
220
0.0
230
1.0
 70
    11
 71
     3
 72
    20
 73
    16
 74
     0
 42
0.000000001
 43
0.0000000001
 40
0.0
 40
0.0
 40
0.0
 40
0.0
 40
0.2
 40
0.2
 40
0.2
 40
0.2
 40
0.4
 40
0.4
 40
0.4
 40
0.4
 40
0.6
 40
0.6
 40
0.6
 40
0.6
 40
1.0
 40
1.0
 40
1.0
 40
1.0
 10
-55.5595
 20
-143.3485
 30
0.0
 10
-55.5595
 20
-143.3485
 30
0.0
 10
-65.4395
 20
-143.3485
 30
0.0
 10
-65.4395
 20
-143.3485
 30
0.0
 10
-65.4395
 20
-143.3485
 30
0.0
 10
-65.4395
 20
-143.3485
 30
0.0
 10
-65.4395
 20
-139.3485
 30
0.0
 10
-65.4395
 20
-139.3485
 30
0.0
 10
-65.4395
 20
-139.3485
 30
0.0
 10
-65.4395
 20
-139.3485
 30
0.0
 10
-55.5595
 20
-139.3485
 30
0.0
 10
-55.5595
 20
-139.3485
 30
0.0
 10
-55.5595
 20
-139.3485
 30
0.0
 10
-55.5595
 20
-139.3485
 30
0.0
 10
-55.5595
 20
-143.3485
 30
0.0
 10
-55.5595
 20
-143.3485
 30
0.0
  0
SPLINE
  5
A4
330
1F
100
AcDbEntity
  8
Layer 1
 62
     5
370
     9
100
AcDbSpline
210
0.0
220
0.0
230
1.0
 70
    11
 71
     3
 72
    20
 73
    16
 74
     0
 42
0.000000001
 43
0.0000000001
 40
0.0
 40
0.0
 40
0.0
 40
0.0
 40
0.2
 40
0.2
 40
0.2
 40
0.2
 40
0.4
 40
0.4
 40
0.4
 40
0.4
 40
0.6
 40
0.6
 40
0.6
 40
0.6
 40
1.0
 40
1.0
 40
1.0
 40
1.0
 10
-240.5595
 20
-143.3485
 30
0.0
 10
-240.5595
 20
-143.3485
 30
0.0
 10
-250.4395
 20
-143.3485
 30
0.0
 10
-250.4395
 20
-143.3485
 30
0.0
 10
-250.4395
 20
-143.3485
 30
0.0
 10
-250.4395
 20
-143.3485
 30
0.0
 10
-250.4395
 20
-139.3485
 30
0.0
 10
-250.4395
 20
-139.3485
 30
0.0
 10
-250.4395
 20
-139.3485
 30
0.0
 10
-250.4395
 20
-139.3485
 30
0.0
 10
-240.5595
 20
-139.3485
 30
0.0
 10
-240.5595
 20
-139.3485
 30
0.0
 10
-240.5595
 20
-139.3485
 30
0.0
 10
-240.5595
 20
-139.3485
 30
0.0
 10
-240.5595
 20
-143.3485
 30
0.0
 10
-240.5595
 20
-143.3485
 30
0.0
  0
SPLINE
  5
A5
330
1F
100
AcDbEntity
  8
Layer 1
 62
   250
100
AcDbSpline
210
0.0
220
0.0
230
1.0
 70
    11
 71
     3
 72
    20
 73
    16
 74
     0
 42
0.000000001
 43
0.0000000001
 40
0.0
 40
0.0
 40
0.0
 40
0.0
 40
0.2
 40
0.2
 40
0.2
 40
0.2
 40
0.4
 40
0.4
 40
0.4
 40
0.4
 40
0.6
 40
0.6
 40
0.6
 40
0.6
 40
1.0
 40
1.0
 40
1.0
 40
1.0
 10
-345.3577
 20
-195.1927
 30
0.0
 10
-345.3577
 20
-195.1927
 30
0.0
 10
-345.3577
 20
-194.9092
 30
0.0
 10
-345.3577
 20
-194.9092
 30
0.0
 10
-345.3577
 20
-194.9092
 30
0.0
 10
-345.3577
 20
-194.9092
 30
0.0
 10
-345.1081
 20
-194.9092
 30
0.0
 10
-345.1081
 20
-194.9092
 30
0.0
 10
-345.1081
 20
-194.9092
 30
0.0
 10
-345.1081
 20
-194.9092
 30
0.0
 10
-345.1081
 20
-195.1927
 30
0.0
 10
-345.1081
 20
-195.1927
 30
0.0
 10
-345.1081
 20
-195.1927
 30
0.0
 10
-345.1081
 20
-195.1927
 30
0.0
 10
-345.3577
 20
-195.1927
 30
0.0
 10
-345.3577
 20
-195.1927
 30
0.0
  0
SPLINE
  5
A6
330
1F
100
AcDbEntity
  8
Layer 1
 62
   250
100
AcDbSpline
210
0.0
220
0.0
230
1.0
 70
    11
 71
     3
 72
    20
 73
    16
 74
     0
 42
0.000000001
 43
0.0000000001
 40
0.0
 40
0.0
 40
0.0
 40
0.0
 40
0.2
 40
0.2
 40
0.2
 40
0.2
 40
0.4
 40
0.4
 40
0.4
 40
0.4
 40
0.6
 40
0.6
 40
0.6
 40
0.6
 40
1.0
 40
1.0
 40
1.0
 40
1.0
 10
-345.3577
 20
-196.9393
 30
0.0
 10
-345.3577
 20
-196.9393
 30
0.0
 10
-345.3577
 20
-195.4677
 30
0.0
 10
-345.3577
 20
-195.4677
 30
0.0
 10
-345.3577
 20
-195.4677
 30
0.0
 10
-345.3577
 20
-195.4677
 30
0.0
 10
-345.1081
 20
-195.4677
 30
0.0
 10
-345.1081
 20
-195.4677
 30
0.0
 10
-345.1081
 20
-195.4677
 30
0.0
 10
-345.1081
 20
-195.4677
 30
0.0
 10
-345.1081
 20
-196.9393
 30
0.0
 10
-345.1081
 20
-196.9393
 30
0.0
 10
-345.1081
 20
-196.9393
 30
0.0
 10
-345.1081
 20
-196.9393
 30
0.0
 10
-345.3577
 20
-196.9393
 30
0.0
 10
-345.3577
 20
-196.9393
 30
0.0
  0
SPLINE
  5
A7
330
1F
100
AcDbEntity
  8
Layer 1
 62
   250
100
AcDbSpline
210
0.0
220
0.0
230
1.0
 70
    11
 71
     3
 72
   136
 73
   132
 74
     0
 42
0.000000001
 43
0.0000000001
 40
0.0
 40
0.0
 40
0.0
 40
0.0
 40
0.0294117647058824
 40
0.0294117647058824
 40
0.0294117647058824
 40
0.0294117647058824
 40
0.0588235294117647
 40
0.0588235294117647
 40
0.0588235294117647
 40
0.0588235294117647
 40
0.0882352941176471
 40
0.0882352941176471
 40
0.0882352941176471
 40
0.0882352941176471
 40
0.1176470588235294
 40
0.1176470588235294
 40
0.1176470588235294
 40
0.1176470588235294
 40
0.1470588235294118
 40
0.1470588235294118
 40
0.1470588235294118
 40
0.1470588235294118
 40
0.1764705882352941
 40
0.1764705882352941
 40
0.1764705882352941
 40
0.1764705882352941
 40
0.2058823529411765
 40
0.2058823529411765
 40
0.2058823529411765
 40
0.2058823529411765
 40
0.2352941176470588
 40
0.2352941176470588
 40
0.2352941176470588
 40
0.2352941176470588
 40
0.2647058823529412
 40
0.2647058823529412
 40
0.2647058823529412
 40
0.2647058823529412
 40
0.2941176470588235
 40
0.2941176470588235
 40
0.2941176470588235
 40
0.2941176470588235
 40
0.3235294117647059
 40
0.3235294117647059
 40
0.3235294117647059
 40
0.3235294117647059
 40
0.3529411764705883
 40
0.3529411764705883
 40
0.3529411764705883
 40
0.3529411764705883
 40
0.3823529411764706
 40
0.3823529411764706
 40
0.3823529411764706
 40
0.3823529411764706
 40
0.4117647058823529
 40
0.4117647058823529
 40
0.4117647058823529
 40
0.4117647058823529
 40
0.4411764705882353
 40
0.4411764705882353
 40
0.4411764705882353
 40
0.4411764705882353
 40
0.4705882352941176
 40
0.4705882352941176
 40
0.4705882352941176
 40
0.4705882352941176
 40
0.5
 40
0.5
 40
0.5
 40
0.5
 40
0.5294117647058824
 40
0.5294117647058824
 40
0.5294117647058824
 40
0.5294117647058824
 40
0.5588235294117647
 40
0.5588235294117647
 40
0.5588235294117647
 40
0.5588235294117647
 40
0.5882352941176471
 40
0.5882352941176471
 40
0.5882352941176471
 40
0.5882352941176471
 40
0.6176470588235294
 40
0.6176470588235294
 40
0.6176470588235294
 40
0.6176470588235294
 40
0.6470588235294118
 40
0.6470588235294118
 40
0.6470588235294118
 40
0.6470588235294118
 40
0.6764705882352942
 40
0.6764705882352942
 40
0.6764705882352942
 40
0.6764705882352942
 40
0.7058823529411765
 40
0.7058823529411765
 40
0.7058823529411765
 40
0.7058823529411765
 40
0.7352941176470589
 40
0.7352941176470589
 40
0.7352941176470589
 40
0.7352941176470589
 40
0.7647058823529411
 40
0.7647058823529411
 40
0.7647058823529411
 40
0.7647058823529411
 40
0.7941176470588235
 40
0.7941176470588235
 40
0.7941176470588235
 40
0.7941176470588235
 40
0.8235294117647058
 40
0.8235294117647058
 40
0.8235294117647058
 40
0.8235294117647058
 40
0.8529411764705882
 40
0.8529411764705882
 40
0.8529411764705882
 40
0.8529411764705882
 40
0.8823529411764706
 40
0.8823529411764706
 40
0.8823529411764706
 40
0.8823529411764706
 40
0.9117647058823529
 40
0.9117647058823529
 40
0.9117647058823529
 40
0.9117647058823529
 40
0.9411764705882353
 40
0.9411764705882353
 40
0.9411764705882353
 40
0.9411764705882353
 40
1.0
 40
1.0
 40
1.0
 40
1.0
 10
-344.827
 20
-196.4998
 30
0.0
 10
-344.827
 20
-196.4998
 30
0.0
 10
-344.5803
 20
-196.4601
 30
0.0
 10
-344.5803
 20
-196.4601
 30
0.0
 10
-344.5803
 20
-196.4601
 30
0.0
 10
-344.5666
 20
-196.5589
 30
0.0
 10
-344.5279
 20
-196.6345
 30
0.0
 10
-344.4645
 20
-196.6874
 30
0.0
 10
-344.4645
 20
-196.6874
 30
0.0
 10
-344.4012
 20
-196.7399
 30
0.0
 10
-344.3124
 20
-196.7663
 30
0.0
 10
-344.199
 20
-196.7663
 30
0.0
 10
-344.199
 20
-196.7663
 30
0.0
 10
-344.0841
 20
-196.7663
 30
0.0
 10
-343.9991
 20
-196.7432
 30
0.0
 10
-343.9433
 20
-196.6964
 30
0.0
 10
-343.9433
 20
-196.6964
 30
0.0
 10
-343.888
 20
-196.6501
 30
0.0
 10
-343.8601
 20
-196.5953
 30
0.0
 10
-343.8601
 20
-196.5324
 30
0.0
 10
-343.8601
 20
-196.5324
 30
0.0
 10
-343.8601
 20
-196.4762
 30
0.0
 10
-343.8852
 20
-196.4318
 30
0.0
 10
-343.9348
 20
-196.3996
 30
0.0
 10
-343.9348
 20
-196.3996
 30
0.0
 10
-343.9698
 20
-196.3774
 30
0.0
 10
-344.0548
 20
-196.3495
 30
0.0
 10
-344.19
 20
-196.315
 30
0.0
 10
-344.19
 20
-196.315
 30
0.0
 10
-344.3724
 20
-196.2692
 30
0.0
 10
-344.4986
 20
-196.2295
 30
0.0
 10
-344.5695
 20
-196.196
 30
0.0
 10
-344.5695
 20
-196.196
 30
0.0
 10
-344.6399
 20
-196.1619
 30
0.0
 10
-344.6933
 20
-196.1156
 30
0.0
 10
-344.7297
 20
-196.0561
 30
0.0
 10
-344.7297
 20
-196.0561
 30
0.0
 10
-344.766
 20
-195.997
 30
0.0
 10
-344.7845
 20
-195.9313
 30
0.0
 10
-344.7845
 20
-195.8595
 30
0.0
 10
-344.7845
 20
-195.8595
 30
0.0
 10
-344.7845
 20
-195.7938
 30
0.0
 10
-344.7693
 20
-195.7333
 30
0.0
 10
-344.7396
 20
-195.6775
 30
0.0
 10
-344.7396
 20
-195.6775
 30
0.0
 10
-344.7093
 20
-195.6218
 30
0.0
 10
-344.6687
 20
-195.5755
 30
0.0
 10
-344.6172
 20
-195.5386
 30
0.0
 10
-344.6172
 20
-195.5386
 30
0.0
 10
-344.5784
 20
-195.5103
 30
0.0
 10
-344.5255
 20
-195.4862
 30
0.0
 10
-344.4589
 20
-195.4663
 30
0.0
 10
-344.4589
 20
-195.4663
 30
0.0
 10
-344.3918
 20
-195.4465
 30
0.0
 10
-344.3204
 20
-195.4365
 30
0.0
 10
-344.2439
 20
-195.4365
 30
0.0
 10
-344.2439
 20
-195.4365
 30
0.0
 10
-344.1285
 20
-195.4365
 30
0.0
 10
-344.0274
 20
-195.4531
 30
0.0
 10
-343.9405
 20
-195.4866
 30
0.0
 10
-343.9405
 20
-195.4866
 30
0.0
 10
-343.853
 20
-195.5197
 30
0.0
 10
-343.7888
 20
-195.5651
 30
0.0
 10
-343.7472
 20
-195.6218
 30
0.0
 10
-343.7472
 20
-195.6218
 30
0.0
 10
-343.7061
 20
-195.679
 30
0.0
 10
-343.6772
 20
-195.755
 30
0.0
 10
-343.6617
 20
-195.8505
 30
0.0
 10
-343.6617
 20
-195.8505
 30
0.0
 10
-343.6617
 20
-195.8505
 30
0.0
 10
-343.9055
 20
-195.8845
 30
0.0
 10
-343.9055
 20
-195.8845
 30
0.0
 10
-343.9055
 20
-195.8845
 30
0.0
 10
-343.9164
 20
-195.808
 30
0.0
 10
-343.9485
 20
-195.748
 30
0.0
 10
-344.0014
 20
-195.705
 30
0.0
 10
-344.0014
 20
-195.705
 30
0.0
 10
-344.0544
 20
-195.662
 30
0.0
 10
-344.129
 20
-195.6407
 30
0.0
 10
-344.2259
 20
-195.6407
 30
0.0
 10
-344.2259
 20
-195.6407
 30
0.0
 10
-344.3398
 20
-195.6407
 30
0.0
 10
-344.4215
 20
-195.6596
 30
0.0
 10
-344.4702
 20
-195.6974
 30
0.0
 10
-344.4702
 20
-195.6974
 30
0.0
 10
-344.5189
 20
-195.7352
 30
0.0
 10
-344.5435
 20
-195.7796
 30
0.0
 10
-344.5435
 20
-195.8302
 30
0.0
 10
-344.5435
 20
-195.8302
 30
0.0
 10
-344.5435
 20
-195.8623
 30
0.0
 10
-344.5335
 20
-195.8916
 30
0.0
 10
-344.5132
 20
-195.9176
 30
0.0
 10
-344.5132
 20
-195.9176
 30
0.0
 10
-344.4929
 20
-195.9441
 30
0.0
 10
-344.4612
 20
-195.9663
 30
0.0
 10
-344.4178
 20
-195.9838
 30
0.0
 10
-344.4178
 20
-195.9838
 30
0.0
 10
-344.3927
 20
-195.9932
 30
0.0
 10
-344.3199
 20
-196.0145
 30
0.0
 10
-344.198
 20
-196.0476
 30
0.0
 10
-344.198
 20
-196.0476
 30
0.0
 10
-344.0222
 20
-196.0944
 30
0.0
 10
-343.8994
 20
-196.1331
 30
0.0
 10
-343.8294
 20
-196.1629
 30
0.0
 10
-343.8294
 20
-196.1629
 30
0.0
 10
-343.7595
 20
-196.1926
 30
0.0
 10
-343.7047
 20
-196.2366
 30
0.0
 10
-343.665
 20
-196.2933
 30
0.0
 10
-343.665
 20
-196.2933
 30
0.0
 10
-343.6248
 20
-196.3505
 30
0.0
 10
-343.6049
 20
-196.4214
 30
0.0
 10
-343.6049
 20
-196.5064
 30
0.0
 10
-343.6049
 20
-196.5064
 30
0.0
 10
-343.6049
 20
-196.5891
 30
0.0
 10
-343.629
 20
-196.6671
 30
0.0
 10
-343.6777
 20
-196.7403
 30
0.0
 10
-343.6777
 20
-196.7403
 30
0.0
 10
-343.7264
 20
-196.8136
 30
0.0
 10
-343.7963
 20
-196.8703
 30
0.0
 10
-343.8875
 20
-196.9105
 30
0.0
 10
-343.8875
 20
-196.9105
 30
0.0
 10
-343.9792
 20
-196.9506
 30
0.0
 10
-344.0827
 20
-196.9705
 30
0.0
 10
-344.198
 20
-196.9705
 30
0.0
 10
-344.198
 20
-196.9705
 30
0.0
 10
-344.3889
 20
-196.9705
 30
0.0
 10
-344.535
 20
-196.9308
 30
0.0
 10
-344.6351
 20
-196.8519
 30
0.0
 10
-344.6351
 20
-196.8519
 30
0.0
 10
-344.7353
 20
-196.7725
 30
0.0
 10
-344.7991
 20
-196.6553
 30
0.0
 10
-344.827
 20
-196.4998
 30
0.0
  0
SPLINE
  5
A8
330
1F
100
AcDbEntity
  8
Layer 1
 62
   250
100
AcDbSpline
210
0.0
220
0.0
230
1.0
 70
    11
 71
     3
 72
   116
 73
   112
 74
     0
 42
0.000000001
 43
0.0000000001
 40
0.0
 40
0.0
 40
0.0
 40
0.0
 40
0.0344827586206897
 40
0.0344827586206897
 40
0.0344827586206897
 40
0.0344827586206897
 40
0.0689655172413793
 40
0.0689655172413793
 40
0.0689655172413793
 40
0.0689655172413793
 40
0.103448275862069
 40
0.103448275862069
 40
0.103448275862069
 40
0.103448275862069
 40
0.1379310344827586
 40
0.1379310344827586
 40
0.1379310344827586
 40
0.1379310344827586
 40
0.1724137931034483
 40
0.1724137931034483
 40
0.1724137931034483
 40
0.1724137931034483
 40
0.2068965517241379
 40
0.2068965517241379
 40
0.2068965517241379
 40
0.2068965517241379
 40
0.2413793103448276
 40
0.2413793103448276
 40
0.2413793103448276
 40
0.2413793103448276
 40
0.2758620689655172
 40
0.2758620689655172
 40
0.2758620689655172
 40
0.2758620689655172
 40
0.3103448275862069
 40
0.3103448275862069
 40
0.3103448275862069
 40
0.3103448275862069
 40
0.3448275862068966
 40
0.3448275862068966
 40
0.3448275862068966
 40
0.3448275862068966
 40
0.3793103448275862
 40
0.3793103448275862
 40
0.3793103448275862
 40
0.3793103448275862
 40
0.4137931034482759
 40
0.4137931034482759
 40
0.4137931034482759
 40
0.4137931034482759
 40
0.4482758620689655
 40
0.4482758620689655
 40
0.4482758620689655
 40
0.4482758620689655
 40
0.4827586206896552
 40
0.4827586206896552
 40
0.4827586206896552
 40
0.4827586206896552
 40
0.5172413793103449
 40
0.5172413793103449
 40
0.5172413793103449
 40
0.5172413793103449
 40
0.5517241379310345
 40
0.5517241379310345
 40
0.5517241379310345
 40
0.5517241379310345
 40
0.5862068965517241
 40
0.5862068965517241
 40
0.5862068965517241
 40
0.5862068965517241
 40
0.6206896551724138
 40
0.6206896551724138
 40
0.6206896551724138
 40
0.6206896551724138
 40
0.6551724137931034
 40
0.6551724137931034
 40
0.6551724137931034
 40
0.6551724137931034
 40
0.6896551724137931
 40
0.6896551724137931
 40
0.6896551724137931
 40
0.6896551724137931
 40
0.7241379310344828
 40
0.7241379310344828
 40
0.7241379310344828
 40
0.7241379310344828
 40
0.7586206896551724
 40
0.7586206896551724
 40
0.7586206896551724
 40
0.7586206896551724
 40
0.7931034482758621
 40
0.7931034482758621
 40
0.7931034482758621
 40
0.7931034482758621
 40
0.8275862068965517
 40
0.8275862068965517
 40
0.8275862068965517
 40
0.8275862068965517
 40
0.8620689655172413
 40
0.8620689655172413
 40
0.8620689655172413
 40
0.8620689655172413
 40
0.896551724137931
 40
0.896551724137931
 40
0.896551724137931
 40
0.896551724137931
 40
0.9310344827586207
 40
0.9310344827586207
 40
0.9310344827586207
 40
0.9310344827586207
 40
1.0
 40
1.0
 40
1.0
 40
1.0
 10
-343.3101
 20
-196.9393
 30
0.0
 10
-343.3101
 20
-196.9393
 30
0.0
 10
-343.3101
 20
-195.4677
 30
0.0
 10
-343.3101
 20
-195.4677
 30
0.0
 10
-343.3101
 20
-195.4677
 30
0.0
 10
-343.3101
 20
-195.4677
 30
0.0
 10
-343.0861
 20
-195.4677
 30
0.0
 10
-343.0861
 20
-195.4677
 30
0.0
 10
-343.0861
 20
-195.4677
 30
0.0
 10
-343.0861
 20
-195.4677
 30
0.0
 10
-343.0861
 20
-195.6757
 30
0.0
 10
-343.0861
 20
-195.6757
 30
0.0
 10
-343.0861
 20
-195.6757
 30
0.0
 10
-343.0402
 20
-195.6038
 30
0.0
 10
-342.9788
 20
-195.5457
 30
0.0
 10
-342.9022
 20
-195.5022
 30
0.0
 10
-342.9022
 20
-195.5022
 30
0.0
 10
-342.8257
 20
-195.4583
 30
0.0
 10
-342.7387
 20
-195.4365
 30
0.0
 10
-342.6409
 20
-195.4365
 30
0.0
 10
-342.6409
 20
-195.4365
 30
0.0
 10
-342.5322
 20
-195.4365
 30
0.0
 10
-342.4429
 20
-195.4592
 30
0.0
 10
-342.3734
 20
-195.5041
 30
0.0
 10
-342.3734
 20
-195.5041
 30
0.0
 10
-342.304
 20
-195.5495
 30
0.0
 10
-342.2548
 20
-195.6123
 30
0.0
 10
-342.2265
 20
-195.6936
 30
0.0
 10
-342.2265
 20
-195.6936
 30
0.0
 10
-342.1093
 20
-195.5221
 30
0.0
 10
-341.9576
 20
-195.4365
 30
0.0
 10
-341.7704
 20
-195.4365
 30
0.0
 10
-341.7704
 20
-195.4365
 30
0.0
 10
-341.6239
 20
-195.4365
 30
0.0
 10
-341.511
 20
-195.4767
 30
0.0
 10
-341.4326
 20
-195.5575
 30
0.0
 10
-341.4326
 20
-195.5575
 30
0.0
 10
-341.3536
 20
-195.6383
 30
0.0
 10
-341.3139
 20
-195.7626
 30
0.0
 10
-341.3139
 20
-195.9304
 30
0.0
 10
-341.3139
 20
-195.9304
 30
0.0
 10
-341.3139
 20
-195.9304
 30
0.0
 10
-341.3139
 20
-196.9393
 30
0.0
 10
-341.3139
 20
-196.9393
 30
0.0
 10
-341.3139
 20
-196.9393
 30
0.0
 10
-341.3139
 20
-196.9393
 30
0.0
 10
-341.5635
 20
-196.9393
 30
0.0
 10
-341.5635
 20
-196.9393
 30
0.0
 10
-341.5635
 20
-196.9393
 30
0.0
 10
-341.5635
 20
-196.9393
 30
0.0
 10
-341.5635
 20
-196.0131
 30
0.0
 10
-341.5635
 20
-196.0131
 30
0.0
 10
-341.5635
 20
-196.0131
 30
0.0
 10
-341.5635
 20
-195.9138
 30
0.0
 10
-341.572
 20
-195.842
 30
0.0
 10
-341.588
 20
-195.7981
 30
0.0
 10
-341.588
 20
-195.7981
 30
0.0
 10
-341.6041
 20
-195.7541
 30
0.0
 10
-341.6334
 20
-195.7191
 30
0.0
 10
-341.6764
 20
-195.6922
 30
0.0
 10
-341.6764
 20
-195.6922
 30
0.0
 10
-341.7189
 20
-195.6653
 30
0.0
 10
-341.769
 20
-195.652
 30
0.0
 10
-341.8262
 20
-195.652
 30
0.0
 10
-341.8262
 20
-195.652
 30
0.0
 10
-341.9302
 20
-195.652
 30
0.0
 10
-342.0162
 20
-195.6865
 30
0.0
 10
-342.0847
 20
-195.755
 30
0.0
 10
-342.0847
 20
-195.755
 30
0.0
 10
-342.1532
 20
-195.824
 30
0.0
 10
-342.1872
 20
-195.9342
 30
0.0
 10
-342.1872
 20
-196.0854
 30
0.0
 10
-342.1872
 20
-196.0854
 30
0.0
 10
-342.1872
 20
-196.0854
 30
0.0
 10
-342.1872
 20
-196.9393
 30
0.0
 10
-342.1872
 20
-196.9393
 30
0.0
 10
-342.1872
 20
-196.9393
 30
0.0
 10
-342.1872
 20
-196.9393
 30
0.0
 10
-342.4368
 20
-196.9393
 30
0.0
 10
-342.4368
 20
-196.9393
 30
0.0
 10
-342.4368
 20
-196.9393
 30
0.0
 10
-342.4368
 20
-196.9393
 30
0.0
 10
-342.4368
 20
-195.9842
 30
0.0
 10
-342.4368
 20
-195.9842
 30
0.0
 10
-342.4368
 20
-195.9842
 30
0.0
 10
-342.4368
 20
-195.8737
 30
0.0
 10
-342.4571
 20
-195.7905
 30
0.0
 10
-342.4977
 20
-195.7352
 30
0.0
 10
-342.4977
 20
-195.7352
 30
0.0
 10
-342.5384
 20
-195.6799
 30
0.0
 10
-342.605
 20
-195.652
 30
0.0
 10
-342.6971
 20
-195.652
 30
0.0
 10
-342.6971
 20
-195.652
 30
0.0
 10
-342.7671
 20
-195.652
 30
0.0
 10
-342.8318
 20
-195.6705
 30
0.0
 10
-342.8914
 20
-195.7073
 30
0.0
 10
-342.8914
 20
-195.7073
 30
0.0
 10
-342.9509
 20
-195.7442
 30
0.0
 10
-342.9939
 20
-195.7981
 30
0.0
 10
-343.0209
 20
-195.8694
 30
0.0
 10
-343.0209
 20
-195.8694
 30
0.0
 10
-343.0473
 20
-195.9403
 30
0.0
 10
-343.0605
 20
-196.0428
 30
0.0
 10
-343.0605
 20
-196.1766
 30
0.0
 10
-343.0605
 20
-196.1766
 30
0.0
 10
-343.0605
 20
-196.1766
 30
0.0
 10
-343.0605
 20
-196.9393
 30
0.0
 10
-343.0605
 20
-196.9393
 30
0.0
 10
-343.0605
 20
-196.9393
 30
0.0
 10
-343.0605
 20
-196.9393
 30
0.0
 10
-343.3101
 20
-196.9393
 30
0.0
 10
-343.3101
 20
-196.9393
 30
0.0
  0
SPLINE
  5
A9
330
1F
100
AcDbEntity
  8
Layer 1
 62
   250
100
AcDbSpline
210
0.0
220
0.0
230
1.0
 70
    11
 71
     3
 72
    64
 73
    60
 74
     0
 42
0.000000001
 43
0.0000000001
 40
0.0
 40
0.0
 40
0.0
 40
0.0
 40
0.0625
 40
0.0625
 40
0.0625
 40
0.0625
 40
0.125
 40
0.125
 40
0.125
 40
0.125
 40
0.1875
 40
0.1875
 40
0.1875
 40
0.1875
 40
0.25
 40
0.25
 40
0.25
 40
0.25
 40
0.3125
 40
0.3125
 40
0.3125
 40
0.3125
 40
0.375
 40
0.375
 40
0.375
 40
0.375
 40
0.4375
 40
0.4375
 40
0.4375
 40
0.4375
 40
0.5
 40
0.5
 40
0.5
 40
0.5
 40
0.5625
 40
0.5625
 40
0.5625
 40
0.5625
 40
0.625
 40
0.625
 40
0.625
 40
0.625
 40
0.6875
 40
0.6875
 40
0.6875
 40
0.6875
 40
0.75
 40
0.75
 40
0.75
 40
0.75
 40
0.8125
 40
0.8125
 40
0.8125
 40
0.8125
 40
0.875
 40
0.875
 40
0.875
 40
0.875
 40
1.0
 40
1.0
 40
1.0
 40
1.0
 10
-340.1348
 20
-196.9393
 30
0.0
 10
-340.1348
 20
-196.9393
 30
0.0
 10
-340.1348
 20
-194.9092
 30
0.0
 10
-340.1348
 20
-194.9092
 30
0.0
 10
-340.1348
 20
-194.9092
 30
0.0
 10
-340.1348
 20
-194.9092
 30
0.0
 10
-339.7322
 20
-194.9092
 30
0.0
 10
-339.7322
 20
-194.9092
 30
0.0
 10
-339.7322
 20
-194.9092
 30
0.0
 10
-339.7322
 20
-194.9092
 30
0.0
 10
-339.2521
 20
-196.3462
 30
0.0
 10
-339.2521
 20
-196.3462
 30
0.0
 10
-339.2521
 20
-196.3462
 30
0.0
 10
-339.2077
 20
-196.48
 30
0.0
 10
-339.1755
 20
-196.5801
 30
0.0
 10
-339.1552
 20
-196.6468
 30
0.0
 10
-339.1552
 20
-196.6468
 30
0.0
 10
-339.1321
 20
-196.5731
 30
0.0
 10
-339.0957
 20
-196.4644
 30
0.0
 10
-339.0465
 20
-196.3212
 30
0.0
 10
-339.0465
 20
-196.3212
 30
0.0
 10
-339.0465
 20
-196.3212
 30
0.0
 10
-338.5579
 20
-194.9092
 30
0.0
 10
-338.5579
 20
-194.9092
 30
0.0
 10
-338.5579
 20
-194.9092
 30
0.0
 10
-338.5579
 20
-194.9092
 30
0.0
 10
-338.1983
 20
-194.9092
 30
0.0
 10
-338.1983
 20
-194.9092
 30
0.0
 10
-338.1983
 20
-194.9092
 30
0.0
 10
-338.1983
 20
-194.9092
 30
0.0
 10
-338.1983
 20
-196.9393
 30
0.0
 10
-338.1983
 20
-196.9393
 30
0.0
 10
-338.1983
 20
-196.9393
 30
0.0
 10
-338.1983
 20
-196.9393
 30
0.0
 10
-338.4563
 20
-196.9393
 30
0.0
 10
-338.4563
 20
-196.9393
 30
0.0
 10
-338.4563
 20
-196.9393
 30
0.0
 10
-338.4563
 20
-196.9393
 30
0.0
 10
-338.4563
 20
-195.2409
 30
0.0
 10
-338.4563
 20
-195.2409
 30
0.0
 10
-338.4563
 20
-195.2409
 30
0.0
 10
-338.4563
 20
-195.2409
 30
0.0
 10
-339.0489
 20
-196.9393
 30
0.0
 10
-339.0489
 20
-196.9393
 30
0.0
 10
-339.0489
 20
-196.9393
 30
0.0
 10
-339.0489
 20
-196.9393
 30
0.0
 10
-339.2908
 20
-196.9393
 30
0.0
 10
-339.2908
 20
-196.9393
 30
0.0
 10
-339.2908
 20
-196.9393
 30
0.0
 10
-339.2908
 20
-196.9393
 30
0.0
 10
-339.8768
 20
-195.2097
 30
0.0
 10
-339.8768
 20
-195.2097
 30
0.0
 10
-339.8768
 20
-195.2097
 30
0.0
 10
-339.8768
 20
-195.2097
 30
0.0
 10
-339.8768
 20
-196.9393
 30
0.0
 10
-339.8768
 20
-196.9393
 30
0.0
 10
-339.8768
 20
-196.9393
 30
0.0
 10
-339.8768
 20
-196.9393
 30
0.0
 10
-340.1348
 20
-196.9393
 30
0.0
 10
-340.1348
 20
-196.9393
 30
0.0
  0
SPLINE
  5
AA
330
1F
100
AcDbEntity
  8
Layer 1
 62
   250
100
AcDbSpline
210
0.0
220
0.0
230
1.0
 70
    11
 71
     3
 72
   112
 73
   108
 74
     0
 42
0.000000001
 43
0.0000000001
 40
0.0
 40
0.0
 40
0.0
 40
0.0
 40
0.0357142857142857
 40
0.0357142857142857
 40
0.0357142857142857
 40
0.0357142857142857
 40
0.0714285714285714
 40
0.0714285714285714
 40
0.0714285714285714
 40
0.0714285714285714
 40
0.1071428571428571
 40
0.1071428571428571
 40
0.1071428571428571
 40
0.1071428571428571
 40
0.1428571428571428
 40
0.1428571428571428
 40
0.1428571428571428
 40
0.1428571428571428
 40
0.1785714285714286
 40
0.1785714285714286
 40
0.1785714285714286
 40
0.1785714285714286
 40
0.2142857142857143
 40
0.2142857142857143
 40
0.2142857142857143
 40
0.2142857142857143
 40
0.25
 40
0.25
 40
0.25
 40
0.25
 40
0.2857142857142857
 40
0.2857142857142857
 40
0.2857142857142857
 40
0.2857142857142857
 40
0.3214285714285715
 40
0.3214285714285715
 40
0.3214285714285715
 40
0.3214285714285715
 40
0.3571428571428572
 40
0.3571428571428572
 40
0.3571428571428572
 40
0.3571428571428572
 40
0.3928571428571428
 40
0.3928571428571428
 40
0.3928571428571428
 40
0.3928571428571428
 40
0.4285714285714285
 40
0.4285714285714285
 40
0.4285714285714285
 40
0.4285714285714285
 40
0.4642857142857143
 40
0.4642857142857143
 40
0.4642857142857143
 40
0.4642857142857143
 40
0.5
 40
0.5
 40
0.5
 40
0.5
 40
0.5357142857142857
 40
0.5357142857142857
 40
0.5357142857142857
 40
0.5357142857142857
 40
0.5714285714285714
 40
0.5714285714285714
 40
0.5714285714285714
 40
0.5714285714285714
 40
0.6071428571428571
 40
0.6071428571428571
 40
0.6071428571428571
 40
0.6071428571428571
 40
0.6428571428571429
 40
0.6428571428571429
 40
0.6428571428571429
 40
0.6428571428571429
 40
0.6785714285714286
 40
0.6785714285714286
 40
0.6785714285714286
 40
0.6785714285714286
 40
0.7142857142857143
 40
0.7142857142857143
 40
0.7142857142857143
 40
0.7142857142857143
 40
0.75
 40
0.75
 40
0.75
 40
0.75
 40
0.7857142857142857
 40
0.7857142857142857
 40
0.7857142857142857
 40
0.7857142857142857
 40
0.8214285714285714
 40
0.8214285714285714
 40
0.8214285714285714
 40
0.8214285714285714
 40
0.8571428571428571
 40
0.8571428571428571
 40
0.8571428571428571
 40
0.8571428571428571
 40
0.8928571428571429
 40
0.8928571428571429
 40
0.8928571428571429
 40
0.8928571428571429
 40
0.9285714285714286
 40
0.9285714285714286
 40
0.9285714285714286
 40
0.9285714285714286
 40
1.0
 40
1.0
 40
1.0
 40
1.0
 10
-336.8373
 20
-196.755
 30
0.0
 10
-336.9299
 20
-196.8339
 30
0.0
 10
-337.0192
 20
-196.8892
 30
0.0
 10
-337.1047
 20
-196.9218
 30
0.0
 10
-337.1047
 20
-196.9218
 30
0.0
 10
-337.1903
 20
-196.9544
 30
0.0
 10
-337.2819
 20
-196.9705
 30
0.0
 10
-337.3802
 20
-196.9705
 30
0.0
 10
-337.3802
 20
-196.9705
 30
0.0
 10
-337.5419
 20
-196.9705
 30
0.0
 10
-337.6661
 20
-196.9313
 30
0.0
 10
-337.7531
 20
-196.8523
 30
0.0
 10
-337.7531
 20
-196.8523
 30
0.0
 10
-337.84
 20
-196.7739
 30
0.0
 10
-337.8835
 20
-196.6732
 30
0.0
 10
-337.8835
 20
-196.5509
 30
0.0
 10
-337.8835
 20
-196.5509
 30
0.0
 10
-337.8835
 20
-196.479
 30
0.0
 10
-337.867
 20
-196.4133
 30
0.0
 10
-337.8344
 20
-196.3538
 30
0.0
 10
-337.8344
 20
-196.3538
 30
0.0
 10
-337.8013
 20
-196.2942
 30
0.0
 10
-337.7583
 20
-196.247
 30
0.0
 10
-337.7054
 20
-196.2111
 30
0.0
 10
-337.7054
 20
-196.2111
 30
0.0
 10
-337.652
 20
-196.1752
 30
0.0
 10
-337.5924
 20
-196.1478
 30
0.0
 10
-337.5258
 20
-196.1293
 30
0.0
 10
-337.5258
 20
-196.1293
 30
0.0
 10
-337.4766
 20
-196.1166
 30
0.0
 10
-337.4025
 20
-196.1043
 30
0.0
 10
-337.3037
 20
-196.092
 30
0.0
 10
-337.3037
 20
-196.092
 30
0.0
 10
-337.1024
 20
-196.0684
 30
0.0
 10
-336.9535
 20
-196.0395
 30
0.0
 10
-336.8585
 20
-196.0065
 30
0.0
 10
-336.8585
 20
-196.0065
 30
0.0
 10
-336.8576
 20
-195.9724
 30
0.0
 10
-336.8571
 20
-195.9507
 30
0.0
 10
-336.8571
 20
-195.9417
 30
0.0
 10
-336.8571
 20
-195.9417
 30
0.0
 10
-336.8571
 20
-195.8406
 30
0.0
 10
-336.8807
 20
-195.7692
 30
0.0
 10
-336.928
 20
-195.7276
 30
0.0
 10
-336.928
 20
-195.7276
 30
0.0
 10
-336.9918
 20
-195.6714
 30
0.0
 10
-337.0868
 20
-195.6435
 30
0.0
 10
-337.2125
 20
-195.6435
 30
0.0
 10
-337.2125
 20
-195.6435
 30
0.0
 10
-337.3302
 20
-195.6435
 30
0.0
 10
-337.4171
 20
-195.6643
 30
0.0
 10
-337.4729
 20
-195.7054
 30
0.0
 10
-337.4729
 20
-195.7054
 30
0.0
 10
-337.5291
 20
-195.7465
 30
0.0
 10
-337.5702
 20
-195.8193
 30
0.0
 10
-337.5972
 20
-195.9242
 30
0.0
 10
-337.5972
 20
-195.9242
 30
0.0
 10
-337.5972
 20
-195.9242
 30
0.0
 10
-337.841
 20
-195.8902
 30
0.0
 10
-337.841
 20
-195.8902
 30
0.0
 10
-337.841
 20
-195.8902
 30
0.0
 10
-337.8188
 20
-195.7858
 30
0.0
 10
-337.7824
 20
-195.7012
 30
0.0
 10
-337.7314
 20
-195.6369
 30
0.0
 10
-337.7314
 20
-195.6369
 30
0.0
 10
-337.6803
 20
-195.5726
 30
0.0
 10
-337.6066
 20
-195.5235
 30
0.0
 10
-337.5102
 20
-195.4885
 30
0.0
 10
-337.5102
 20
-195.4885
 30
0.0
 10
-337.4143
 20
-195.454
 30
0.0
 10
-337.3023
 20
-195.4365
 30
0.0
 10
-337.1756
 20
-195.4365
 30
0.0
 10
-337.1756
 20
-195.4365
 30
0.0
 10
-337.0499
 20
-195.4365
 30
0.0
 10
-336.9474
 20
-195.4512
 30
0.0
 10
-336.8685
 20
-195.481
 30
0.0
 10
-336.8685
 20
-195.481
 30
0.0
 10
-336.79
 20
-195.5107
 30
0.0
 10
-336.7319
 20
-195.5476
 30
0.0
 10
-336.695
 20
-195.5925
 30
0.0
 10
-336.695
 20
-195.5925
 30
0.0
 10
-336.6582
 20
-195.6374
 30
0.0
 10
-336.6322
 20
-195.6941
 30
0.0
 10
-336.617
 20
-195.7626
 30
0.0
 10
-336.617
 20
-195.7626
 30
0.0
 10
-336.609
 20
-195.8051
 30
0.0
 10
-336.6048
 20
-195.8817
 30
0.0
 10
-336.6048
 20
-195.9918
 30
0.0
 10
-336.6048
 20
-195.9918
 30
0.0
 10
-336.6048
 20
-195.9918
 30
0.0
 10
-336.6048
 20
-196.3226
 30
0.0
 10
-336.6048
 20
-196.3226
 30
0.0
 10
-336.6048
 20
-196.3226
 30
0.0
 10
-336.6048
 20
-196.5537
 30
0.0
 10
-336.5996
 20
-196.6997
 30
0.0
 10
-336.5892
 20
-196.7616
 30
0.0
 10
-336.5892
 20
-196.7616
 30
0.0
 10
-336.5792
 20
-196.8235
 30
0.0
 10
-336.5584
 20
-196.8826
 30
0.0
 10
-336.5282
 20
-196.9393
 30
0.0
 10
-336.5282
 20
-196.9393
 30
0.0
 10
-336.5282
 20
-196.9393
 30
0.0
 10
-336.7891
 20
-196.9393
 30
0.0
 10
-336.7891
 20
-196.9393
 30
0.0
 10
-336.7891
 20
-196.9393
 30
0.0
 10
-336.8141
 20
-196.8868
 30
0.0
 10
-336.8302
 20
-196.8254
 30
0.0
 10
-336.8373
 20
-196.755
 30
0.0
  0
SPLINE
  5
AB
330
1F
100
AcDbEntity
  8
Layer 1
 62
   250
100
AcDbSpline
210
0.0
220
0.0
230
1.0
 70
    11
 71
     3
 72
    44
 73
    40
 74
     0
 42
0.000000001
 43
0.0000000001
 40
0.0
 40
0.0
 40
0.0
 40
0.0
 40
0.0909090909090909
 40
0.0909090909090909
 40
0.0909090909090909
 40
0.0909090909090909
 40
0.1818181818181818
 40
0.1818181818181818
 40
0.1818181818181818
 40
0.1818181818181818
 40
0.2727272727272727
 40
0.2727272727272727
 40
0.2727272727272727
 40
0.2727272727272727
 40
0.3636363636363636
 40
0.3636363636363636
 40
0.3636363636363636
 40
0.3636363636363636
 40
0.4545454545454545
 40
0.4545454545454545
 40
0.4545454545454545
 40
0.4545454545454545
 40
0.5454545454545454
 40
0.5454545454545454
 40
0.5454545454545454
 40
0.5454545454545454
 40
0.6363636363636364
 40
0.6363636363636364
 40
0.6363636363636364
 40
0.6363636363636364
 40
0.7272727272727273
 40
0.7272727272727273
 40
0.7272727272727273
 40
0.7272727272727273
 40
0.8181818181818182
 40
0.8181818181818182
 40
0.8181818181818182
 40
0.8181818181818182
 40
1.0
 40
1.0
 40
1.0
 40
1.0
 10
-336.8571
 20
-196.2021
 30
0.0
 10
-336.9478
 20
-196.239
 30
0.0
 10
-337.0839
 20
-196.2701
 30
0.0
 10
-337.2654
 20
-196.2957
 30
0.0
 10
-337.2654
 20
-196.2957
 30
0.0
 10
-337.3684
 20
-196.3103
 30
0.0
 10
-337.4412
 20
-196.3269
 30
0.0
 10
-337.4837
 20
-196.3453
 30
0.0
 10
-337.4837
 20
-196.3453
 30
0.0
 10
-337.5263
 20
-196.3637
 30
0.0
 10
-337.5589
 20
-196.3907
 30
0.0
 10
-337.582
 20
-196.4256
 30
0.0
 10
-337.582
 20
-196.4256
 30
0.0
 10
-337.6052
 20
-196.4611
 30
0.0
 10
-337.617
 20
-196.5003
 30
0.0
 10
-337.617
 20
-196.5438
 30
0.0
 10
-337.617
 20
-196.5438
 30
0.0
 10
-337.617
 20
-196.6094
 30
0.0
 10
-337.592
 20
-196.6647
 30
0.0
 10
-337.5414
 20
-196.7087
 30
0.0
 10
-337.5414
 20
-196.7087
 30
0.0
 10
-337.4908
 20
-196.7526
 30
0.0
 10
-337.4171
 20
-196.7748
 30
0.0
 10
-337.3202
 20
-196.7748
 30
0.0
 10
-337.3202
 20
-196.7748
 30
0.0
 10
-337.2243
 20
-196.7748
 30
0.0
 10
-337.1388
 20
-196.7541
 30
0.0
 10
-337.0636
 20
-196.712
 30
0.0
 10
-337.0636
 20
-196.712
 30
0.0
 10
-336.989
 20
-196.6704
 30
0.0
 10
-336.9337
 20
-196.6132
 30
0.0
 10
-336.8987
 20
-196.5409
 30
0.0
 10
-336.8987
 20
-196.5409
 30
0.0
 10
-336.8718
 20
-196.4847
 30
0.0
 10
-336.8585
 20
-196.402
 30
0.0
 10
-336.8585
 20
-196.2928
 30
0.0
 10
-336.8585
 20
-196.2928
 30
0.0
 10
-336.8585
 20
-196.2928
 30
0.0
 10
-336.8571
 20
-196.2021
 30
0.0
 10
-336.8571
 20
-196.2021
 30
0.0
  0
SPLINE
  5
AC
330
1F
100
AcDbEntity
  8
Layer 1
 62
   250
100
AcDbSpline
210
0.0
220
0.0
230
1.0
 70
    11
 71
     3
 72
    52
 73
    48
 74
     0
 42
0.000000001
 43
0.0000000001
 40
0.0
 40
0.0
 40
0.0
 40
0.0
 40
0.0769230769230769
 40
0.0769230769230769
 40
0.0769230769230769
 40
0.0769230769230769
 40
0.1538461538461539
 40
0.1538461538461539
 40
0.1538461538461539
 40
0.1538461538461539
 40
0.2307692307692308
 40
0.2307692307692308
 40
0.2307692307692308
 40
0.2307692307692308
 40
0.3076923076923077
 40
0.3076923076923077
 40
0.3076923076923077
 40
0.3076923076923077
 40
0.3846153846153846
 40
0.3846153846153846
 40
0.3846153846153846
 40
0.3846153846153846
 40
0.4615384615384616
 40
0.4615384615384616
 40
0.4615384615384616
 40
0.4615384615384616
 40
0.5384615384615384
 40
0.5384615384615384
 40
0.5384615384615384
 40
0.5384615384615384
 40
0.6153846153846154
 40
0.6153846153846154
 40
0.6153846153846154
 40
0.6153846153846154
 40
0.6923076923076923
 40
0.6923076923076923
 40
0.6923076923076923
 40
0.6923076923076923
 40
0.7692307692307693
 40
0.7692307692307693
 40
0.7692307692307693
 40
0.7692307692307693
 40
0.8461538461538461
 40
0.8461538461538461
 40
0.8461538461538461
 40
0.8461538461538461
 40
1.0
 40
1.0
 40
1.0
 40
1.0
 10
-336.2205
 20
-196.9393
 30
0.0
 10
-336.2205
 20
-196.9393
 30
0.0
 10
-336.2205
 20
-194.9092
 30
0.0
 10
-336.2205
 20
-194.9092
 30
0.0
 10
-336.2205
 20
-194.9092
 30
0.0
 10
-336.2205
 20
-194.9092
 30
0.0
 10
-335.971
 20
-194.9092
 30
0.0
 10
-335.971
 20
-194.9092
 30
0.0
 10
-335.971
 20
-194.9092
 30
0.0
 10
-335.971
 20
-194.9092
 30
0.0
 10
-335.971
 20
-196.0655
 30
0.0
 10
-335.971
 20
-196.0655
 30
0.0
 10
-335.971
 20
-196.0655
 30
0.0
 10
-335.971
 20
-196.0655
 30
0.0
 10
-335.3812
 20
-195.4677
 30
0.0
 10
-335.3812
 20
-195.4677
 30
0.0
 10
-335.3812
 20
-195.4677
 30
0.0
 10
-335.3812
 20
-195.4677
 30
0.0
 10
-335.0589
 20
-195.4677
 30
0.0
 10
-335.0589
 20
-195.4677
 30
0.0
 10
-335.0589
 20
-195.4677
 30
0.0
 10
-335.0589
 20
-195.4677
 30
0.0
 10
-335.6204
 20
-196.0145
 30
0.0
 10
-335.6204
 20
-196.0145
 30
0.0
 10
-335.6204
 20
-196.0145
 30
0.0
 10
-335.6204
 20
-196.0145
 30
0.0
 10
-335.0022
 20
-196.9393
 30
0.0
 10
-335.0022
 20
-196.9393
 30
0.0
 10
-335.0022
 20
-196.9393
 30
0.0
 10
-335.0022
 20
-196.9393
 30
0.0
 10
-335.3094
 20
-196.9393
 30
0.0
 10
-335.3094
 20
-196.9393
 30
0.0
 10
-335.3094
 20
-196.9393
 30
0.0
 10
-335.3094
 20
-196.9393
 30
0.0
 10
-335.798
 20
-196.1874
 30
0.0
 10
-335.798
 20
-196.1874
 30
0.0
 10
-335.798
 20
-196.1874
 30
0.0
 10
-335.798
 20
-196.1874
 30
0.0
 10
-335.971
 20
-196.3557
 30
0.0
 10
-335.971
 20
-196.3557
 30
0.0
 10
-335.971
 20
-196.3557
 30
0.0
 10
-335.971
 20
-196.3557
 30
0.0
 10
-335.971
 20
-196.9393
 30
0.0
 10
-335.971
 20
-196.9393
 30
0.0
 10
-335.971
 20
-196.9393
 30
0.0
 10
-335.971
 20
-196.9393
 30
0.0
 10
-336.2205
 20
-196.9393
 30
0.0
 10
-336.2205
 20
-196.9393
 30
0.0
  0
SPLINE
  5
AD
330
1F
100
AcDbEntity
  8
Layer 1
 62
   250
100
AcDbSpline
210
0.0
220
0.0
230
1.0
 70
    11
 71
     3
 72
    64
 73
    60
 74
     0
 42
0.000000001
 43
0.0000000001
 40
0.0
 40
0.0
 40
0.0
 40
0.0
 40
0.0625
 40
0.0625
 40
0.0625
 40
0.0625
 40
0.125
 40
0.125
 40
0.125
 40
0.125
 40
0.1875
 40
0.1875
 40
0.1875
 40
0.1875
 40
0.25
 40
0.25
 40
0.25
 40
0.25
 40
0.3125
 40
0.3125
 40
0.3125
 40
0.3125
 40
0.375
 40
0.375
 40
0.375
 40
0.375
 40
0.4375
 40
0.4375
 40
0.4375
 40
0.4375
 40
0.5
 40
0.5
 40
0.5
 40
0.5
 40
0.5625
 40
0.5625
 40
0.5625
 40
0.5625
 40
0.625
 40
0.625
 40
0.625
 40
0.625
 40
0.6875
 40
0.6875
 40
0.6875
 40
0.6875
 40
0.75
 40
0.75
 40
0.75
 40
0.75
 40
0.8125
 40
0.8125
 40
0.8125
 40
0.8125
 40
0.875
 40
0.875
 40
0.875
 40
0.875
 40
1.0
 40
1.0
 40
1.0
 40
1.0
 10
-333.8
 20
-196.463
 30
0.0
 10
-333.8
 20
-196.463
 30
0.0
 10
-333.542
 20
-196.497
 30
0.0
 10
-333.542
 20
-196.497
 30
0.0
 10
-333.542
 20
-196.497
 30
0.0
 10
-333.5822
 20
-196.6468
 30
0.0
 10
-333.6573
 20
-196.7635
 30
0.0
 10
-333.767
 20
-196.8462
 30
0.0
 10
-333.767
 20
-196.8462
 30
0.0
 10
-333.8766
 20
-196.9289
 30
0.0
 10
-334.0165
 20
-196.9705
 30
0.0
 10
-334.1871
 20
-196.9705
 30
0.0
 10
-334.1871
 20
-196.9705
 30
0.0
 10
-334.4016
 20
-196.9705
 30
0.0
 10
-334.5717
 20
-196.9043
 30
0.0
 10
-334.6974
 20
-196.772
 30
0.0
 10
-334.6974
 20
-196.772
 30
0.0
 10
-334.8231
 20
-196.6402
 30
0.0
 10
-334.886
 20
-196.4544
 30
0.0
 10
-334.886
 20
-196.2158
 30
0.0
 10
-334.886
 20
-196.2158
 30
0.0
 10
-334.886
 20
-195.9691
 30
0.0
 10
-334.8227
 20
-195.7773
 30
0.0
 10
-334.6955
 20
-195.6412
 30
0.0
 10
-334.6955
 20
-195.6412
 30
0.0
 10
-334.5684
 20
-195.5046
 30
0.0
 10
-334.4035
 20
-195.4365
 30
0.0
 10
-334.2008
 20
-195.4365
 30
0.0
 10
-334.2008
 20
-195.4365
 30
0.0
 10
-334.0047
 20
-195.4365
 30
0.0
 10
-333.8445
 20
-195.5032
 30
0.0
 10
-333.7202
 20
-195.6369
 30
0.0
 10
-333.7202
 20
-195.6369
 30
0.0
 10
-333.5959
 20
-195.7706
 30
0.0
 10
-333.5335
 20
-195.9587
 30
0.0
 10
-333.5335
 20
-196.2012
 30
0.0
 10
-333.5335
 20
-196.2012
 30
0.0
 10
-333.5335
 20
-196.2158
 30
0.0
 10
-333.534
 20
-196.238
 30
0.0
 10
-333.5349
 20
-196.2673
 30
0.0
 10
-333.5349
 20
-196.2673
 30
0.0
 10
-333.5349
 20
-196.2673
 30
0.0
 10
-334.6308
 20
-196.2673
 30
0.0
 10
-334.6308
 20
-196.2673
 30
0.0
 10
-334.6308
 20
-196.2673
 30
0.0
 10
-334.6214
 20
-196.4285
 30
0.0
 10
-334.576
 20
-196.5523
 30
0.0
 10
-334.4938
 20
-196.6378
 30
0.0
 10
-334.4938
 20
-196.6378
 30
0.0
 10
-334.412
 20
-196.7233
 30
0.0
 10
-334.3095
 20
-196.7663
 30
0.0
 10
-334.1871
 20
-196.7663
 30
0.0
 10
-334.1871
 20
-196.7663
 30
0.0
 10
-334.0959
 20
-196.7663
 30
0.0
 10
-334.0179
 20
-196.7422
 30
0.0
 10
-333.9536
 20
-196.694
 30
0.0
 10
-333.9536
 20
-196.694
 30
0.0
 10
-333.8889
 20
-196.6458
 30
0.0
 10
-333.8378
 20
-196.5688
 30
0.0
 10
-333.8
 20
-196.463
 30
0.0
  0
SPLINE
  5
AE
330
1F
100
AcDbEntity
  8
Layer 1
 62
   250
100
AcDbSpline
210
0.0
220
0.0
230
1.0
 70
    11
 71
     3
 72
    24
 73
    20
 74
     0
 42
0.000000001
 43
0.0000000001
 40
0.0
 40
0.0
 40
0.0
 40
0.0
 40
0.1666666666666667
 40
0.1666666666666667
 40
0.1666666666666667
 40
0.1666666666666667
 40
0.3333333333333333
 40
0.3333333333333333
 40
0.3333333333333333
 40
0.3333333333333333
 40
0.5
 40
0.5
 40
0.5
 40
0.5
 40
0.6666666666666666
 40
0.6666666666666666
 40
0.6666666666666666
 40
0.6666666666666666
 40
1.0
 40
1.0
 40
1.0
 40
1.0
 10
-334.6166
 20
-196.0632
 30
0.0
 10
-334.6166
 20
-196.0632
 30
0.0
 10
-333.7972
 20
-196.0632
 30
0.0
 10
-333.7972
 20
-196.0632
 30
0.0
 10
-333.7972
 20
-196.0632
 30
0.0
 10
-333.8081
 20
-195.9393
 30
0.0
 10
-333.8397
 20
-195.8467
 30
0.0
 10
-333.8912
 20
-195.7848
 30
0.0
 10
-333.8912
 20
-195.7848
 30
0.0
 10
-333.9702
 20
-195.6889
 30
0.0
 10
-334.0732
 20
-195.6407
 30
0.0
 10
-334.1994
 20
-195.6407
 30
0.0
 10
-334.1994
 20
-195.6407
 30
0.0
 10
-334.3137
 20
-195.6407
 30
0.0
 10
-334.4096
 20
-195.679
 30
0.0
 10
-334.4876
 20
-195.7555
 30
0.0
 10
-334.4876
 20
-195.7555
 30
0.0
 10
-334.5651
 20
-195.8321
 30
0.0
 10
-334.6081
 20
-195.9346
 30
0.0
 10
-334.6166
 20
-196.0632
 30
0.0
  0
SPLINE
  5
AF
330
1F
100
AcDbEntity
  8
Layer 1
 62
   250
100
AcDbSpline
210
0.0
220
0.0
230
1.0
 70
    11
 71
     3
 72
    56
 73
    52
 74
     0
 42
0.000000001
 43
0.0000000001
 40
0.0
 40
0.0
 40
0.0
 40
0.0
 40
0.0714285714285714
 40
0.0714285714285714
 40
0.0714285714285714
 40
0.0714285714285714
 40
0.1428571428571428
 40
0.1428571428571428
 40
0.1428571428571428
 40
0.1428571428571428
 40
0.2142857142857143
 40
0.2142857142857143
 40
0.2142857142857143
 40
0.2142857142857143
 40
0.2857142857142857
 40
0.2857142857142857
 40
0.2857142857142857
 40
0.2857142857142857
 40
0.3571428571428572
 40
0.3571428571428572
 40
0.3571428571428572
 40
0.3571428571428572
 40
0.4285714285714285
 40
0.4285714285714285
 40
0.4285714285714285
 40
0.4285714285714285
 40
0.5
 40
0.5
 40
0.5
 40
0.5
 40
0.5714285714285714
 40
0.5714285714285714
 40
0.5714285714285714
 40
0.5714285714285714
 40
0.6428571428571429
 40
0.6428571428571429
 40
0.6428571428571429
 40
0.6428571428571429
 40
0.7142857142857143
 40
0.7142857142857143
 40
0.7142857142857143
 40
0.7142857142857143
 40
0.7857142857142857
 40
0.7857142857142857
 40
0.7857142857142857
 40
0.7857142857142857
 40
0.8571428571428571
 40
0.8571428571428571
 40
0.8571428571428571
 40
0.8571428571428571
 40
1.0
 40
1.0
 40
1.0
 40
1.0
 10
-333.2296
 20
-196.9393
 30
0.0
 10
-333.2296
 20
-196.9393
 30
0.0
 10
-333.2296
 20
-195.4677
 30
0.0
 10
-333.2296
 20
-195.4677
 30
0.0
 10
-333.2296
 20
-195.4677
 30
0.0
 10
-333.2296
 20
-195.4677
 30
0.0
 10
-333.0056
 20
-195.4677
 30
0.0
 10
-333.0056
 20
-195.4677
 30
0.0
 10
-333.0056
 20
-195.4677
 30
0.0
 10
-333.0056
 20
-195.4677
 30
0.0
 10
-333.0056
 20
-195.6931
 30
0.0
 10
-333.0056
 20
-195.6931
 30
0.0
 10
-333.0056
 20
-195.6931
 30
0.0
 10
-332.9484
 20
-195.5887
 30
0.0
 10
-332.8955
 20
-195.5197
 30
0.0
 10
-332.8468
 20
-195.4866
 30
0.0
 10
-332.8468
 20
-195.4866
 30
0.0
 10
-332.7981
 20
-195.4531
 30
0.0
 10
-332.7447
 20
-195.4365
 30
0.0
 10
-332.6866
 20
-195.4365
 30
0.0
 10
-332.6866
 20
-195.4365
 30
0.0
 10
-332.6025
 20
-195.4365
 30
0.0
 10
-332.517
 20
-195.463
 30
0.0
 10
-332.43
 20
-195.5155
 30
0.0
 10
-332.43
 20
-195.5155
 30
0.0
 10
-332.43
 20
-195.5155
 30
0.0
 10
-332.5189
 20
-195.7456
 30
0.0
 10
-332.5189
 20
-195.7456
 30
0.0
 10
-332.5189
 20
-195.7456
 30
0.0
 10
-332.5793
 20
-195.7116
 30
0.0
 10
-332.6398
 20
-195.6946
 30
0.0
 10
-332.7003
 20
-195.6946
 30
0.0
 10
-332.7003
 20
-195.6946
 30
0.0
 10
-332.7547
 20
-195.6946
 30
0.0
 10
-332.8033
 20
-195.7111
 30
0.0
 10
-332.8463
 20
-195.7437
 30
0.0
 10
-332.8463
 20
-195.7437
 30
0.0
 10
-332.8894
 20
-195.7763
 30
0.0
 10
-332.9201
 20
-195.8217
 30
0.0
 10
-332.9385
 20
-195.8798
 30
0.0
 10
-332.9385
 20
-195.8798
 30
0.0
 10
-332.9664
 20
-195.9682
 30
0.0
 10
-332.9801
 20
-196.0651
 30
0.0
 10
-332.9801
 20
-196.1704
 30
0.0
 10
-332.9801
 20
-196.1704
 30
0.0
 10
-332.9801
 20
-196.1704
 30
0.0
 10
-332.9801
 20
-196.9393
 30
0.0
 10
-332.9801
 20
-196.9393
 30
0.0
 10
-332.9801
 20
-196.9393
 30
0.0
 10
-332.9801
 20
-196.9393
 30
0.0
 10
-333.2296
 20
-196.9393
 30
0.0
 10
-333.2296
 20
-196.9393
 30
0.0
  0
SPLINE
  5
B0
330
1F
100
AcDbEntity
  8
Layer 1
 62
   250
100
AcDbSpline
210
0.0
220
0.0
230
1.0
 70
    11
 71
     3
 72
   136
 73
   132
 74
     0
 42
0.000000001
 43
0.0000000001
 40
0.0
 40
0.0
 40
0.0
 40
0.0
 40
0.0294117647058824
 40
0.0294117647058824
 40
0.0294117647058824
 40
0.0294117647058824
 40
0.0588235294117647
 40
0.0588235294117647
 40
0.0588235294117647
 40
0.0588235294117647
 40
0.0882352941176471
 40
0.0882352941176471
 40
0.0882352941176471
 40
0.0882352941176471
 40
0.1176470588235294
 40
0.1176470588235294
 40
0.1176470588235294
 40
0.1176470588235294
 40
0.1470588235294118
 40
0.1470588235294118
 40
0.1470588235294118
 40
0.1470588235294118
 40
0.1764705882352941
 40
0.1764705882352941
 40
0.1764705882352941
 40
0.1764705882352941
 40
0.2058823529411765
 40
0.2058823529411765
 40
0.2058823529411765
 40
0.2058823529411765
 40
0.2352941176470588
 40
0.2352941176470588
 40
0.2352941176470588
 40
0.2352941176470588
 40
0.2647058823529412
 40
0.2647058823529412
 40
0.2647058823529412
 40
0.2647058823529412
 40
0.2941176470588235
 40
0.2941176470588235
 40
0.2941176470588235
 40
0.2941176470588235
 40
0.3235294117647059
 40
0.3235294117647059
 40
0.3235294117647059
 40
0.3235294117647059
 40
0.3529411764705883
 40
0.3529411764705883
 40
0.3529411764705883
 40
0.3529411764705883
 40
0.3823529411764706
 40
0.3823529411764706
 40
0.3823529411764706
 40
0.3823529411764706
 40
0.4117647058823529
 40
0.4117647058823529
 40
0.4117647058823529
 40
0.4117647058823529
 40
0.4411764705882353
 40
0.4411764705882353
 40
0.4411764705882353
 40
0.4411764705882353
 40
0.4705882352941176
 40
0.4705882352941176
 40
0.4705882352941176
 40
0.4705882352941176
 40
0.5
 40
0.5
 40
0.5
 40
0.5
 40
0.5294117647058824
 40
0.5294117647058824
 40
0.5294117647058824
 40
0.5294117647058824
 40
0.5588235294117647
 40
0.5588235294117647
 40
0.5588235294117647
 40
0.5588235294117647
 40
0.5882352941176471
 40
0.5882352941176471
 40
0.5882352941176471
 40
0.5882352941176471
 40
0.6176470588235294
 40
0.6176470588235294
 40
0.6176470588235294
 40
0.6176470588235294
 40
0.6470588235294118
 40
0.6470588235294118
 40
0.6470588235294118
 40
0.6470588235294118
 40
0.6764705882352942
 40
0.6764705882352942
 40
0.6764705882352942
 40
0.6764705882352942
 40
0.7058823529411765
 40
0.7058823529411765
 40
0.7058823529411765
 40
0.7058823529411765
 40
0.7352941176470589
 40
0.7352941176470589
 40
0.7352941176470589
 40
0.7352941176470589
 40
0.7647058823529411
 40
0.7647058823529411
 40
0.7647058823529411
 40
0.7647058823529411
 40
0.7941176470588235
 40
0.7941176470588235
 40
0.7941176470588235
 40
0.7941176470588235
 40
0.8235294117647058
 40
0.8235294117647058
 40
0.8235294117647058
 40
0.8235294117647058
 40
0.8529411764705882
 40
0.8529411764705882
 40
0.8529411764705882
 40
0.8529411764705882
 40
0.8823529411764706
 40
0.8823529411764706
 40
0.8823529411764706
 40
0.8823529411764706
 40
0.9117647058823529
 40
0.9117647058823529
 40
0.9117647058823529
 40
0.9117647058823529
 40
0.9411764705882353
 40
0.9411764705882353
 40
0.9411764705882353
 40
0.9411764705882353
 40
1.0
 40
1.0
 40
1.0
 40
1.0
 10
-332.3818
 20
-196.4998
 30
0.0
 10
-332.3818
 20
-196.4998
 30
0.0
 10
-332.1351
 20
-196.4601
 30
0.0
 10
-332.1351
 20
-196.4601
 30
0.0
 10
-332.1351
 20
-196.4601
 30
0.0
 10
-332.1214
 20
-196.5589
 30
0.0
 10
-332.0827
 20
-196.6345
 30
0.0
 10
-332.0193
 20
-196.6874
 30
0.0
 10
-332.0193
 20
-196.6874
 30
0.0
 10
-331.956
 20
-196.7399
 30
0.0
 10
-331.8672
 20
-196.7663
 30
0.0
 10
-331.7538
 20
-196.7663
 30
0.0
 10
-331.7538
 20
-196.7663
 30
0.0
 10
-331.6389
 20
-196.7663
 30
0.0
 10
-331.5539
 20
-196.7432
 30
0.0
 10
-331.4981
 20
-196.6964
 30
0.0
 10
-331.4981
 20
-196.6964
 30
0.0
 10
-331.4428
 20
-196.6501
 30
0.0
 10
-331.4149
 20
-196.5953
 30
0.0
 10
-331.4149
 20
-196.5324
 30
0.0
 10
-331.4149
 20
-196.5324
 30
0.0
 10
-331.4149
 20
-196.4762
 30
0.0
 10
-331.44
 20
-196.4318
 30
0.0
 10
-331.4896
 20
-196.3996
 30
0.0
 10
-331.4896
 20
-196.3996
 30
0.0
 10
-331.5246
 20
-196.3774
 30
0.0
 10
-331.6096
 20
-196.3495
 30
0.0
 10
-331.7448
 20
-196.315
 30
0.0
 10
-331.7448
 20
-196.315
 30
0.0
 10
-331.9272
 20
-196.2692
 30
0.0
 10
-332.0534
 20
-196.2295
 30
0.0
 10
-332.1243
 20
-196.196
 30
0.0
 10
-332.1243
 20
-196.196
 30
0.0
 10
-332.1947
 20
-196.1619
 30
0.0
 10
-332.2481
 20
-196.1156
 30
0.0
 10
-332.2845
 20
-196.0561
 30
0.0
 10
-332.2845
 20
-196.0561
 30
0.0
 10
-332.3208
 20
-195.997
 30
0.0
 10
-332.3393
 20
-195.9313
 30
0.0
 10
-332.3393
 20
-195.8595
 30
0.0
 10
-332.3393
 20
-195.8595
 30
0.0
 10
-332.3393
 20
-195.7938
 30
0.0
 10
-332.3241
 20
-195.7333
 30
0.0
 10
-332.2944
 20
-195.6775
 30
0.0
 10
-332.2944
 20
-195.6775
 30
0.0
 10
-332.2641
 20
-195.6218
 30
0.0
 10
-332.2235
 20
-195.5755
 30
0.0
 10
-332.172
 20
-195.5386
 30
0.0
 10
-332.172
 20
-195.5386
 30
0.0
 10
-332.1332
 20
-195.5103
 30
0.0
 10
-332.0803
 20
-195.4862
 30
0.0
 10
-332.0137
 20
-195.4663
 30
0.0
 10
-332.0137
 20
-195.4663
 30
0.0
 10
-331.9466
 20
-195.4465
 30
0.0
 10
-331.8752
 20
-195.4365
 30
0.0
 10
-331.7987
 20
-195.4365
 30
0.0
 10
-331.7987
 20
-195.4365
 30
0.0
 10
-331.6833
 20
-195.4365
 30
0.0
 10
-331.5822
 20
-195.4531
 30
0.0
 10
-331.4953
 20
-195.4866
 30
0.0
 10
-331.4953
 20
-195.4866
 30
0.0
 10
-331.4078
 20
-195.5197
 30
0.0
 10
-331.3436
 20
-195.5651
 30
0.0
 10
-331.302
 20
-195.6218
 30
0.0
 10
-331.302
 20
-195.6218
 30
0.0
 10
-331.2609
 20
-195.679
 30
0.0
 10
-331.232
 20
-195.755
 30
0.0
 10
-331.2165
 20
-195.8505
 30
0.0
 10
-331.2165
 20
-195.8505
 30
0.0
 10
-331.2165
 20
-195.8505
 30
0.0
 10
-331.4603
 20
-195.8845
 30
0.0
 10
-331.4603
 20
-195.8845
 30
0.0
 10
-331.4603
 20
-195.8845
 30
0.0
 10
-331.4712
 20
-195.808
 30
0.0
 10
-331.5033
 20
-195.748
 30
0.0
 10
-331.5562
 20
-195.705
 30
0.0
 10
-331.5562
 20
-195.705
 30
0.0
 10
-331.6092
 20
-195.662
 30
0.0
 10
-331.6838
 20
-195.6407
 30
0.0
 10
-331.7807
 20
-195.6407
 30
0.0
 10
-331.7807
 20
-195.6407
 30
0.0
 10
-331.8946
 20
-195.6407
 30
0.0
 10
-331.9763
 20
-195.6596
 30
0.0
 10
-332.025
 20
-195.6974
 30
0.0
 10
-332.025
 20
-195.6974
 30
0.0
 10
-332.0737
 20
-195.7352
 30
0.0
 10
-332.0983
 20
-195.7796
 30
0.0
 10
-332.0983
 20
-195.8302
 30
0.0
 10
-332.0983
 20
-195.8302
 30
0.0
 10
-332.0983
 20
-195.8623
 30
0.0
 10
-332.0883
 20
-195.8916
 30
0.0
 10
-332.068
 20
-195.9176
 30
0.0
 10
-332.068
 20
-195.9176
 30
0.0
 10
-332.0477
 20
-195.9441
 30
0.0
 10
-332.016
 20
-195.9663
 30
0.0
 10
-331.9726
 20
-195.9838
 30
0.0
 10
-331.9726
 20
-195.9838
 30
0.0
 10
-331.9475
 20
-195.9932
 30
0.0
 10
-331.8747
 20
-196.0145
 30
0.0
 10
-331.7528
 20
-196.0476
 30
0.0
 10
-331.7528
 20
-196.0476
 30
0.0
 10
-331.577
 20
-196.0944
 30
0.0
 10
-331.4542
 20
-196.1331
 30
0.0
 10
-331.3842
 20
-196.1629
 30
0.0
 10
-331.3842
 20
-196.1629
 30
0.0
 10
-331.3143
 20
-196.1926
 30
0.0
 10
-331.2595
 20
-196.2366
 30
0.0
 10
-331.2198
 20
-196.2933
 30
0.0
 10
-331.2198
 20
-196.2933
 30
0.0
 10
-331.1796
 20
-196.3505
 30
0.0
 10
-331.1597
 20
-196.4214
 30
0.0
 10
-331.1597
 20
-196.5064
 30
0.0
 10
-331.1597
 20
-196.5064
 30
0.0
 10
-331.1597
 20
-196.5891
 30
0.0
 10
-331.1838
 20
-196.6671
 30
0.0
 10
-331.2325
 20
-196.7403
 30
0.0
 10
-331.2325
 20
-196.7403
 30
0.0
 10
-331.2812
 20
-196.8136
 30
0.0
 10
-331.3511
 20
-196.8703
 30
0.0
 10
-331.4423
 20
-196.9105
 30
0.0
 10
-331.4423
 20
-196.9105
 30
0.0
 10
-331.534
 20
-196.9506
 30
0.0
 10
-331.6375
 20
-196.9705
 30
0.0
 10
-331.7528
 20
-196.9705
 30
0.0
 10
-331.7528
 20
-196.9705
 30
0.0
 10
-331.9437
 20
-196.9705
 30
0.0
 10
-332.0898
 20
-196.9308
 30
0.0
 10
-332.1899
 20
-196.8519
 30
0.0
 10
-332.1899
 20
-196.8519
 30
0.0
 10
-332.2901
 20
-196.7725
 30
0.0
 10
-332.3539
 20
-196.6553
 30
0.0
 10
-332.3818
 20
-196.4998
 30
0.0
  0
SPLINE
  5
B1
330
1F
100
AcDbEntity
  8
Layer 1
 62
   250
100
AcDbSpline
210
0.0
220
0.0
230
1.0
 70
    11
 71
     3
 72
    64
 73
    60
 74
     0
 42
0.000000001
 43
0.0000000001
 40
0.0
 40
0.0
 40
0.0
 40
0.0
 40
0.0625
 40
0.0625
 40
0.0625
 40
0.0625
 40
0.125
 40
0.125
 40
0.125
 40
0.125
 40
0.1875
 40
0.1875
 40
0.1875
 40
0.1875
 40
0.25
 40
0.25
 40
0.25
 40
0.25
 40
0.3125
 40
0.3125
 40
0.3125
 40
0.3125
 40
0.375
 40
0.375
 40
0.375
 40
0.375
 40
0.4375
 40
0.4375
 40
0.4375
 40
0.4375
 40
0.5
 40
0.5
 40
0.5
 40
0.5
 40
0.5625
 40
0.5625
 40
0.5625
 40
0.5625
 40
0.625
 40
0.625
 40
0.625
 40
0.625
 40
0.6875
 40
0.6875
 40
0.6875
 40
0.6875
 40
0.75
 40
0.75
 40
0.75
 40
0.75
 40
0.8125
 40
0.8125
 40
0.8125
 40
0.8125
 40
0.875
 40
0.875
 40
0.875
 40
0.875
 40
1.0
 40
1.0
 40
1.0
 40
1.0
 10
-330.8649
 20
-197.5035
 30
0.0
 10
-330.8649
 20
-197.5035
 30
0.0
 10
-330.8649
 20
-195.4677
 30
0.0
 10
-330.8649
 20
-195.4677
 30
0.0
 10
-330.8649
 20
-195.4677
 30
0.0
 10
-330.8649
 20
-195.4677
 30
0.0
 10
-330.638
 20
-195.4677
 30
0.0
 10
-330.638
 20
-195.4677
 30
0.0
 10
-330.638
 20
-195.4677
 30
0.0
 10
-330.638
 20
-195.4677
 30
0.0
 10
-330.638
 20
-195.661
 30
0.0
 10
-330.638
 20
-195.661
 30
0.0
 10
-330.638
 20
-195.661
 30
0.0
 10
-330.5846
 20
-195.5863
 30
0.0
 10
-330.5241
 20
-195.5301
 30
0.0
 10
-330.4566
 20
-195.4928
 30
0.0
 10
-330.4566
 20
-195.4928
 30
0.0
 10
-330.3895
 20
-195.4554
 30
0.0
 10
-330.3077
 20
-195.4365
 30
0.0
 10
-330.2118
 20
-195.4365
 30
0.0
 10
-330.2118
 20
-195.4365
 30
0.0
 10
-330.0861
 20
-195.4365
 30
0.0
 10
-329.9755
 20
-195.4687
 30
0.0
 10
-329.8796
 20
-195.5334
 30
0.0
 10
-329.8796
 20
-195.5334
 30
0.0
 10
-329.7836
 20
-195.5977
 30
0.0
 10
-329.7113
 20
-195.6889
 30
0.0
 10
-329.6622
 20
-195.8061
 30
0.0
 10
-329.6622
 20
-195.8061
 30
0.0
 10
-329.6135
 20
-195.9238
 30
0.0
 10
-329.5889
 20
-196.0523
 30
0.0
 10
-329.5889
 20
-196.1926
 30
0.0
 10
-329.5889
 20
-196.1926
 30
0.0
 10
-329.5889
 20
-196.3424
 30
0.0
 10
-329.6159
 20
-196.4776
 30
0.0
 10
-329.6697
 20
-196.5981
 30
0.0
 10
-329.6697
 20
-196.5981
 30
0.0
 10
-329.7236
 20
-196.7181
 30
0.0
 10
-329.8021
 20
-196.8103
 30
0.0
 10
-329.9051
 20
-196.8746
 30
0.0
 10
-329.9051
 20
-196.8746
 30
0.0
 10
-330.0076
 20
-196.9384
 30
0.0
 10
-330.1158
 20
-196.9705
 30
0.0
 10
-330.2293
 20
-196.9705
 30
0.0
 10
-330.2293
 20
-196.9705
 30
0.0
 10
-330.3124
 20
-196.9705
 30
0.0
 10
-330.3871
 20
-196.953
 30
0.0
 10
-330.4528
 20
-196.918
 30
0.0
 10
-330.4528
 20
-196.918
 30
0.0
 10
-330.5189
 20
-196.8831
 30
0.0
 10
-330.5728
 20
-196.8391
 30
0.0
 10
-330.6153
 20
-196.7857
 30
0.0
 10
-330.6153
 20
-196.7857
 30
0.0
 10
-330.6153
 20
-196.7857
 30
0.0
 10
-330.6153
 20
-197.5035
 30
0.0
 10
-330.6153
 20
-197.5035
 30
0.0
 10
-330.6153
 20
-197.5035
 30
0.0
 10
-330.6153
 20
-197.5035
 30
0.0
 10
-330.8649
 20
-197.5035
 30
0.0
 10
-330.8649
 20
-197.5035
 30
0.0
  0
SPLINE
  5
B2
330
1F
100
AcDbEntity
  8
Layer 1
 62
   250
100
AcDbSpline
210
0.0
220
0.0
230
1.0
 70
    11
 71
     3
 72
    36
 73
    32
 74
     0
 42
0.000000001
 43
0.0000000001
 40
0.0
 40
0.0
 40
0.0
 40
0.0
 40
0.1111111111111111
 40
0.1111111111111111
 40
0.1111111111111111
 40
0.1111111111111111
 40
0.2222222222222222
 40
0.2222222222222222
 40
0.2222222222222222
 40
0.2222222222222222
 40
0.3333333333333333
 40
0.3333333333333333
 40
0.3333333333333333
 40
0.3333333333333333
 40
0.4444444444444444
 40
0.4444444444444444
 40
0.4444444444444444
 40
0.4444444444444444
 40
0.5555555555555556
 40
0.5555555555555556
 40
0.5555555555555556
 40
0.5555555555555556
 40
0.6666666666666666
 40
0.6666666666666666
 40
0.6666666666666666
 40
0.6666666666666666
 40
0.7777777777777778
 40
0.7777777777777778
 40
0.7777777777777778
 40
0.7777777777777778
 40
1.0
 40
1.0
 40
1.0
 40
1.0
 10
-330.638
 20
-196.2125
 30
0.0
 10
-330.638
 20
-196.401
 30
0.0
 10
-330.5998
 20
-196.5405
 30
0.0
 10
-330.5237
 20
-196.6307
 30
0.0
 10
-330.5237
 20
-196.6307
 30
0.0
 10
-330.4471
 20
-196.721
 30
0.0
 10
-330.3545
 20
-196.7663
 30
0.0
 10
-330.2458
 20
-196.7663
 30
0.0
 10
-330.2458
 20
-196.7663
 30
0.0
 10
-330.1352
 20
-196.7663
 30
0.0
 10
-330.0407
 20
-196.7196
 30
0.0
 10
-329.9623
 20
-196.626
 30
0.0
 10
-329.9623
 20
-196.626
 30
0.0
 10
-329.8833
 20
-196.5324
 30
0.0
 10
-329.8441
 20
-196.3878
 30
0.0
 10
-329.8441
 20
-196.1917
 30
0.0
 10
-329.8441
 20
-196.1917
 30
0.0
 10
-329.8441
 20
-196.0046
 30
0.0
 10
-329.8824
 20
-195.8647
 30
0.0
 10
-329.9594
 20
-195.7716
 30
0.0
 10
-329.9594
 20
-195.7716
 30
0.0
 10
-330.0365
 20
-195.6785
 30
0.0
 10
-330.1281
 20
-195.6322
 30
0.0
 10
-330.2349
 20
-195.6322
 30
0.0
 10
-330.2349
 20
-195.6322
 30
0.0
 10
-330.3408
 20
-195.6322
 30
0.0
 10
-330.4344
 20
-195.6818
 30
0.0
 10
-330.5156
 20
-195.7806
 30
0.0
 10
-330.5156
 20
-195.7806
 30
0.0
 10
-330.5974
 20
-195.8798
 30
0.0
 10
-330.638
 20
-196.0235
 30
0.0
 10
-330.638
 20
-196.2125
 30
0.0
  0
SPLINE
  5
B3
330
1F
100
AcDbEntity
  8
Layer 1
 62
   250
100
AcDbSpline
210
0.0
220
0.0
230
1.0
 70
    11
 71
     3
 72
   112
 73
   108
 74
     0
 42
0.000000001
 43
0.0000000001
 40
0.0
 40
0.0
 40
0.0
 40
0.0
 40
0.0357142857142857
 40
0.0357142857142857
 40
0.0357142857142857
 40
0.0357142857142857
 40
0.0714285714285714
 40
0.0714285714285714
 40
0.0714285714285714
 40
0.0714285714285714
 40
0.1071428571428571
 40
0.1071428571428571
 40
0.1071428571428571
 40
0.1071428571428571
 40
0.1428571428571428
 40
0.1428571428571428
 40
0.1428571428571428
 40
0.1428571428571428
 40
0.1785714285714286
 40
0.1785714285714286
 40
0.1785714285714286
 40
0.1785714285714286
 40
0.2142857142857143
 40
0.2142857142857143
 40
0.2142857142857143
 40
0.2142857142857143
 40
0.25
 40
0.25
 40
0.25
 40
0.25
 40
0.2857142857142857
 40
0.2857142857142857
 40
0.2857142857142857
 40
0.2857142857142857
 40
0.3214285714285715
 40
0.3214285714285715
 40
0.3214285714285715
 40
0.3214285714285715
 40
0.3571428571428572
 40
0.3571428571428572
 40
0.3571428571428572
 40
0.3571428571428572
 40
0.3928571428571428
 40
0.3928571428571428
 40
0.3928571428571428
 40
0.3928571428571428
 40
0.4285714285714285
 40
0.4285714285714285
 40
0.4285714285714285
 40
0.4285714285714285
 40
0.4642857142857143
 40
0.4642857142857143
 40
0.4642857142857143
 40
0.4642857142857143
 40
0.5
 40
0.5
 40
0.5
 40
0.5
 40
0.5357142857142857
 40
0.5357142857142857
 40
0.5357142857142857
 40
0.5357142857142857
 40
0.5714285714285714
 40
0.5714285714285714
 40
0.5714285714285714
 40
0.5714285714285714
 40
0.6071428571428571
 40
0.6071428571428571
 40
0.6071428571428571
 40
0.6071428571428571
 40
0.6428571428571429
 40
0.6428571428571429
 40
0.6428571428571429
 40
0.6428571428571429
 40
0.6785714285714286
 40
0.6785714285714286
 40
0.6785714285714286
 40
0.6785714285714286
 40
0.7142857142857143
 40
0.7142857142857143
 40
0.7142857142857143
 40
0.7142857142857143
 40
0.75
 40
0.75
 40
0.75
 40
0.75
 40
0.7857142857142857
 40
0.7857142857142857
 40
0.7857142857142857
 40
0.7857142857142857
 40
0.8214285714285714
 40
0.8214285714285714
 40
0.8214285714285714
 40
0.8214285714285714
 40
0.8571428571428571
 40
0.8571428571428571
 40
0.8571428571428571
 40
0.8571428571428571
 40
0.8928571428571429
 40
0.8928571428571429
 40
0.8928571428571429
 40
0.8928571428571429
 40
0.9285714285714286
 40
0.9285714285714286
 40
0.9285714285714286
 40
0.9285714285714286
 40
1.0
 40
1.0
 40
1.0
 40
1.0
 10
-328.3267
 20
-196.755
 30
0.0
 10
-328.4193
 20
-196.8339
 30
0.0
 10
-328.5086
 20
-196.8892
 30
0.0
 10
-328.5941
 20
-196.9218
 30
0.0
 10
-328.5941
 20
-196.9218
 30
0.0
 10
-328.6797
 20
-196.9544
 30
0.0
 10
-328.7713
 20
-196.9705
 30
0.0
 10
-328.8696
 20
-196.9705
 30
0.0
 10
-328.8696
 20
-196.9705
 30
0.0
 10
-329.0313
 20
-196.9705
 30
0.0
 10
-329.1555
 20
-196.9313
 30
0.0
 10
-329.2425
 20
-196.8523
 30
0.0
 10
-329.2425
 20
-196.8523
 30
0.0
 10
-329.3294
 20
-196.7739
 30
0.0
 10
-329.3729
 20
-196.6732
 30
0.0
 10
-329.3729
 20
-196.5509
 30
0.0
 10
-329.3729
 20
-196.5509
 30
0.0
 10
-329.3729
 20
-196.479
 30
0.0
 10
-329.3564
 20
-196.4133
 30
0.0
 10
-329.3238
 20
-196.3538
 30
0.0
 10
-329.3238
 20
-196.3538
 30
0.0
 10
-329.2907
 20
-196.2942
 30
0.0
 10
-329.2477
 20
-196.247
 30
0.0
 10
-329.1948
 20
-196.2111
 30
0.0
 10
-329.1948
 20
-196.2111
 30
0.0
 10
-329.1414
 20
-196.1752
 30
0.0
 10
-329.0818
 20
-196.1478
 30
0.0
 10
-329.0152
 20
-196.1293
 30
0.0
 10
-329.0152
 20
-196.1293
 30
0.0
 10
-328.966
 20
-196.1166
 30
0.0
 10
-328.8919
 20
-196.1043
 30
0.0
 10
-328.7931
 20
-196.092
 30
0.0
 10
-328.7931
 20
-196.092
 30
0.0
 10
-328.5918
 20
-196.0684
 30
0.0
 10
-328.4429
 20
-196.0395
 30
0.0
 10
-328.3479
 20
-196.0065
 30
0.0
 10
-328.3479
 20
-196.0065
 30
0.0
 10
-328.347
 20
-195.9724
 30
0.0
 10
-328.3465
 20
-195.9507
 30
0.0
 10
-328.3465
 20
-195.9417
 30
0.0
 10
-328.3465
 20
-195.9417
 30
0.0
 10
-328.3465
 20
-195.8406
 30
0.0
 10
-328.3701
 20
-195.7692
 30
0.0
 10
-328.4174
 20
-195.7276
 30
0.0
 10
-328.4174
 20
-195.7276
 30
0.0
 10
-328.4812
 20
-195.6714
 30
0.0
 10
-328.5762
 20
-195.6435
 30
0.0
 10
-328.7019
 20
-195.6435
 30
0.0
 10
-328.7019
 20
-195.6435
 30
0.0
 10
-328.8196
 20
-195.6435
 30
0.0
 10
-328.9065
 20
-195.6643
 30
0.0
 10
-328.9623
 20
-195.7054
 30
0.0
 10
-328.9623
 20
-195.7054
 30
0.0
 10
-329.0185
 20
-195.7465
 30
0.0
 10
-329.0596
 20
-195.8193
 30
0.0
 10
-329.0866
 20
-195.9242
 30
0.0
 10
-329.0866
 20
-195.9242
 30
0.0
 10
-329.0866
 20
-195.9242
 30
0.0
 10
-329.3304
 20
-195.8902
 30
0.0
 10
-329.3304
 20
-195.8902
 30
0.0
 10
-329.3304
 20
-195.8902
 30
0.0
 10
-329.3082
 20
-195.7858
 30
0.0
 10
-329.2718
 20
-195.7012
 30
0.0
 10
-329.2208
 20
-195.6369
 30
0.0
 10
-329.2208
 20
-195.6369
 30
0.0
 10
-329.1697
 20
-195.5726
 30
0.0
 10
-329.096
 20
-195.5235
 30
0.0
 10
-328.9996
 20
-195.4885
 30
0.0
 10
-328.9996
 20
-195.4885
 30
0.0
 10
-328.9037
 20
-195.454
 30
0.0
 10
-328.7917
 20
-195.4365
 30
0.0
 10
-328.665
 20
-195.4365
 30
0.0
 10
-328.665
 20
-195.4365
 30
0.0
 10
-328.5393
 20
-195.4365
 30
0.0
 10
-328.4368
 20
-195.4512
 30
0.0
 10
-328.3579
 20
-195.481
 30
0.0
 10
-328.3579
 20
-195.481
 30
0.0
 10
-328.2794
 20
-195.5107
 30
0.0
 10
-328.2213
 20
-195.5476
 30
0.0
 10
-328.1844
 20
-195.5925
 30
0.0
 10
-328.1844
 20
-195.5925
 30
0.0
 10
-328.1476
 20
-195.6374
 30
0.0
 10
-328.1216
 20
-195.6941
 30
0.0
 10
-328.1064
 20
-195.7626
 30
0.0
 10
-328.1064
 20
-195.7626
 30
0.0
 10
-328.0984
 20
-195.8051
 30
0.0
 10
-328.0942
 20
-195.8817
 30
0.0
 10
-328.0942
 20
-195.9918
 30
0.0
 10
-328.0942
 20
-195.9918
 30
0.0
 10
-328.0942
 20
-195.9918
 30
0.0
 10
-328.0942
 20
-196.3226
 30
0.0
 10
-328.0942
 20
-196.3226
 30
0.0
 10
-328.0942
 20
-196.3226
 30
0.0
 10
-328.0942
 20
-196.5537
 30
0.0
 10
-328.089
 20
-196.6997
 30
0.0
 10
-328.0786
 20
-196.7616
 30
0.0
 10
-328.0786
 20
-196.7616
 30
0.0
 10
-328.0686
 20
-196.8235
 30
0.0
 10
-328.0478
 20
-196.8826
 30
0.0
 10
-328.0176
 20
-196.9393
 30
0.0
 10
-328.0176
 20
-196.9393
 30
0.0
 10
-328.0176
 20
-196.9393
 30
0.0
 10
-328.2785
 20
-196.9393
 30
0.0
 10
-328.2785
 20
-196.9393
 30
0.0
 10
-328.2785
 20
-196.9393
 30
0.0
 10
-328.3035
 20
-196.8868
 30
0.0
 10
-328.3196
 20
-196.8254
 30
0.0
 10
-328.3267
 20
-196.755
 30
0.0
  0
SPLINE
  5
B4
330
1F
100
AcDbEntity
  8
Layer 1
 62
   250
100
AcDbSpline
210
0.0
220
0.0
230
1.0
 70
    11
 71
     3
 72
    44
 73
    40
 74
     0
 42
0.000000001
 43
0.0000000001
 40
0.0
 40
0.0
 40
0.0
 40
0.0
 40
0.0909090909090909
 40
0.0909090909090909
 40
0.0909090909090909
 40
0.0909090909090909
 40
0.1818181818181818
 40
0.1818181818181818
 40
0.1818181818181818
 40
0.1818181818181818
 40
0.2727272727272727
 40
0.2727272727272727
 40
0.2727272727272727
 40
0.2727272727272727
 40
0.3636363636363636
 40
0.3636363636363636
 40
0.3636363636363636
 40
0.3636363636363636
 40
0.4545454545454545
 40
0.4545454545454545
 40
0.4545454545454545
 40
0.4545454545454545
 40
0.5454545454545454
 40
0.5454545454545454
 40
0.5454545454545454
 40
0.5454545454545454
 40
0.6363636363636364
 40
0.6363636363636364
 40
0.6363636363636364
 40
0.6363636363636364
 40
0.7272727272727273
 40
0.7272727272727273
 40
0.7272727272727273
 40
0.7272727272727273
 40
0.8181818181818182
 40
0.8181818181818182
 40
0.8181818181818182
 40
0.8181818181818182
 40
1.0
 40
1.0
 40
1.0
 40
1.0
 10
-328.3465
 20
-196.2021
 30
0.0
 10
-328.4372
 20
-196.239
 30
0.0
 10
-328.5733
 20
-196.2701
 30
0.0
 10
-328.7548
 20
-196.2957
 30
0.0
 10
-328.7548
 20
-196.2957
 30
0.0
 10
-328.8578
 20
-196.3103
 30
0.0
 10
-328.9306
 20
-196.3269
 30
0.0
 10
-328.9731
 20
-196.3453
 30
0.0
 10
-328.9731
 20
-196.3453
 30
0.0
 10
-329.0157
 20
-196.3637
 30
0.0
 10
-329.0483
 20
-196.3907
 30
0.0
 10
-329.0714
 20
-196.4256
 30
0.0
 10
-329.0714
 20
-196.4256
 30
0.0
 10
-329.0946
 20
-196.4611
 30
0.0
 10
-329.1064
 20
-196.5003
 30
0.0
 10
-329.1064
 20
-196.5438
 30
0.0
 10
-329.1064
 20
-196.5438
 30
0.0
 10
-329.1064
 20
-196.6094
 30
0.0
 10
-329.0814
 20
-196.6647
 30
0.0
 10
-329.0308
 20
-196.7087
 30
0.0
 10
-329.0308
 20
-196.7087
 30
0.0
 10
-328.9802
 20
-196.7526
 30
0.0
 10
-328.9065
 20
-196.7748
 30
0.0
 10
-328.8096
 20
-196.7748
 30
0.0
 10
-328.8096
 20
-196.7748
 30
0.0
 10
-328.7137
 20
-196.7748
 30
0.0
 10
-328.6282
 20
-196.7541
 30
0.0
 10
-328.553
 20
-196.712
 30
0.0
 10
-328.553
 20
-196.712
 30
0.0
 10
-328.4784
 20
-196.6704
 30
0.0
 10
-328.4231
 20
-196.6132
 30
0.0
 10
-328.3881
 20
-196.5409
 30
0.0
 10
-328.3881
 20
-196.5409
 30
0.0
 10
-328.3612
 20
-196.4847
 30
0.0
 10
-328.3479
 20
-196.402
 30
0.0
 10
-328.3479
 20
-196.2928
 30
0.0
 10
-328.3479
 20
-196.2928
 30
0.0
 10
-328.3479
 20
-196.2928
 30
0.0
 10
-328.3465
 20
-196.2021
 30
0.0
 10
-328.3465
 20
-196.2021
 30
0.0
  0
SPLINE
  5
B5
330
1F
100
AcDbEntity
  8
Layer 1
 62
   250
100
AcDbSpline
210
0.0
220
0.0
230
1.0
 70
    11
 71
     3
 72
    80
 73
    76
 74
     0
 42
0.000000001
 43
0.0000000001
 40
0.0
 40
0.0
 40
0.0
 40
0.0
 40
0.05
 40
0.05
 40
0.05
 40
0.05
 40
0.1
 40
0.1
 40
0.1
 40
0.1
 40
0.15
 40
0.15
 40
0.15
 40
0.15
 40
0.2
 40
0.2
 40
0.2
 40
0.2
 40
0.25
 40
0.25
 40
0.25
 40
0.25
 40
0.3
 40
0.3
 40
0.3
 40
0.3
 40
0.35
 40
0.35
 40
0.35
 40
0.35
 40
0.4
 40
0.4
 40
0.4
 40
0.4
 40
0.45
 40
0.45
 40
0.45
 40
0.45
 40
0.5
 40
0.5
 40
0.5
 40
0.5
 40
0.55
 40
0.55
 40
0.55
 40
0.55
 40
0.6
 40
0.6
 40
0.6
 40
0.6
 40
0.65
 40
0.65
 40
0.65
 40
0.65
 40
0.7
 40
0.7
 40
0.7
 40
0.7
 40
0.75
 40
0.75
 40
0.75
 40
0.75
 40
0.8
 40
0.8
 40
0.8
 40
0.8
 40
0.85
 40
0.85
 40
0.85
 40
0.85
 40
0.9
 40
0.9
 40
0.9
 40
0.9
 40
1.0
 40
1.0
 40
1.0
 40
1.0
 10
-326.7497
 20
-196.4006
 30
0.0
 10
-326.7497
 20
-196.4006
 30
0.0
 10
-326.5058
 20
-196.4346
 30
0.0
 10
-326.5058
 20
-196.4346
 30
0.0
 10
-326.5058
 20
-196.4346
 30
0.0
 10
-326.5328
 20
-196.6024
 30
0.0
 10
-326.6008
 20
-196.7333
 30
0.0
 10
-326.7109
 20
-196.8282
 30
0.0
 10
-326.7109
 20
-196.8282
 30
0.0
 10
-326.821
 20
-196.9232
 30
0.0
 10
-326.9566
 20
-196.9705
 30
0.0
 10
-327.1168
 20
-196.9705
 30
0.0
 10
-327.1168
 20
-196.9705
 30
0.0
 10
-327.3177
 20
-196.9705
 30
0.0
 10
-327.4793
 20
-196.9048
 30
0.0
 10
-327.6012
 20
-196.7734
 30
0.0
 10
-327.6012
 20
-196.7734
 30
0.0
 10
-327.7236
 20
-196.6421
 30
0.0
 10
-327.7846
 20
-196.454
 30
0.0
 10
-327.7846
 20
-196.2092
 30
0.0
 10
-327.7846
 20
-196.2092
 30
0.0
 10
-327.7846
 20
-196.0504
 30
0.0
 10
-327.7581
 20
-195.9119
 30
0.0
 10
-327.7057
 20
-195.7929
 30
0.0
 10
-327.7057
 20
-195.7929
 30
0.0
 10
-327.6532
 20
-195.6742
 30
0.0
 10
-327.5733
 20
-195.5849
 30
0.0
 10
-327.4656
 20
-195.5259
 30
0.0
 10
-327.4656
 20
-195.5259
 30
0.0
 10
-327.3583
 20
-195.4663
 30
0.0
 10
-327.2416
 20
-195.4365
 30
0.0
 10
-327.115
 20
-195.4365
 30
0.0
 10
-327.115
 20
-195.4365
 30
0.0
 10
-326.9557
 20
-195.4365
 30
0.0
 10
-326.8248
 20
-195.4767
 30
0.0
 10
-326.7237
 20
-195.5575
 30
0.0
 10
-326.7237
 20
-195.5575
 30
0.0
 10
-326.6221
 20
-195.6383
 30
0.0
 10
-326.5569
 20
-195.7532
 30
0.0
 10
-326.5285
 20
-195.9015
 30
0.0
 10
-326.5285
 20
-195.9015
 30
0.0
 10
-326.5285
 20
-195.9015
 30
0.0
 10
-326.7695
 20
-195.9384
 30
0.0
 10
-326.7695
 20
-195.9384
 30
0.0
 10
-326.7695
 20
-195.9384
 30
0.0
 10
-326.7927
 20
-195.8396
 30
0.0
 10
-326.8333
 20
-195.7654
 30
0.0
 10
-326.8924
 20
-195.7154
 30
0.0
 10
-326.8924
 20
-195.7154
 30
0.0
 10
-326.951
 20
-195.6657
 30
0.0
 10
-327.0219
 20
-195.6407
 30
0.0
 10
-327.105
 20
-195.6407
 30
0.0
 10
-327.105
 20
-195.6407
 30
0.0
 10
-327.2307
 20
-195.6407
 30
0.0
 10
-327.3328
 20
-195.6856
 30
0.0
 10
-327.4117
 20
-195.7754
 30
0.0
 10
-327.4117
 20
-195.7754
 30
0.0
 10
-327.4902
 20
-195.8656
 30
0.0
 10
-327.5294
 20
-196.0074
 30
0.0
 10
-327.5294
 20
-196.2021
 30
0.0
 10
-327.5294
 20
-196.2021
 30
0.0
 10
-327.5294
 20
-196.3996
 30
0.0
 10
-327.4916
 20
-196.5428
 30
0.0
 10
-327.416
 20
-196.6321
 30
0.0
 10
-327.416
 20
-196.6321
 30
0.0
 10
-327.3399
 20
-196.7214
 30
0.0
 10
-327.2411
 20
-196.7663
 30
0.0
 10
-327.1197
 20
-196.7663
 30
0.0
 10
-327.1197
 20
-196.7663
 30
0.0
 10
-327.0214
 20
-196.7663
 30
0.0
 10
-326.9396
 20
-196.7366
 30
0.0
 10
-326.8744
 20
-196.6766
 30
0.0
 10
-326.8744
 20
-196.6766
 30
0.0
 10
-326.8087
 20
-196.617
 30
0.0
 10
-326.7671
 20
-196.5249
 30
0.0
 10
-326.7497
 20
-196.4006
 30
0.0
  0
SPLINE
  5
B6
330
1F
100
AcDbEntity
  8
Layer 1
 62
   250
100
AcDbSpline
210
0.0
220
0.0
230
1.0
 70
    11
 71
     3
 72
    64
 73
    60
 74
     0
 42
0.000000001
 43
0.0000000001
 40
0.0
 40
0.0
 40
0.0
 40
0.0
 40
0.0625
 40
0.0625
 40
0.0625
 40
0.0625
 40
0.125
 40
0.125
 40
0.125
 40
0.125
 40
0.1875
 40
0.1875
 40
0.1875
 40
0.1875
 40
0.25
 40
0.25
 40
0.25
 40
0.25
 40
0.3125
 40
0.3125
 40
0.3125
 40
0.3125
 40
0.375
 40
0.375
 40
0.375
 40
0.375
 40
0.4375
 40
0.4375
 40
0.4375
 40
0.4375
 40
0.5
 40
0.5
 40
0.5
 40
0.5
 40
0.5625
 40
0.5625
 40
0.5625
 40
0.5625
 40
0.625
 40
0.625
 40
0.625
 40
0.625
 40
0.6875
 40
0.6875
 40
0.6875
 40
0.6875
 40
0.75
 40
0.75
 40
0.75
 40
0.75
 40
0.8125
 40
0.8125
 40
0.8125
 40
0.8125
 40
0.875
 40
0.875
 40
0.875
 40
0.875
 40
1.0
 40
1.0
 40
1.0
 40
1.0
 10
-325.2894
 20
-196.463
 30
0.0
 10
-325.2894
 20
-196.463
 30
0.0
 10
-325.0314
 20
-196.497
 30
0.0
 10
-325.0314
 20
-196.497
 30
0.0
 10
-325.0314
 20
-196.497
 30
0.0
 10
-325.0716
 20
-196.6468
 30
0.0
 10
-325.1467
 20
-196.7635
 30
0.0
 10
-325.2564
 20
-196.8462
 30
0.0
 10
-325.2564
 20
-196.8462
 30
0.0
 10
-325.366
 20
-196.9289
 30
0.0
 10
-325.5059
 20
-196.9705
 30
0.0
 10
-325.6765
 20
-196.9705
 30
0.0
 10
-325.6765
 20
-196.9705
 30
0.0
 10
-325.891
 20
-196.9705
 30
0.0
 10
-326.0611
 20
-196.9043
 30
0.0
 10
-326.1868
 20
-196.772
 30
0.0
 10
-326.1868
 20
-196.772
 30
0.0
 10
-326.3125
 20
-196.6402
 30
0.0
 10
-326.3754
 20
-196.4544
 30
0.0
 10
-326.3754
 20
-196.2158
 30
0.0
 10
-326.3754
 20
-196.2158
 30
0.0
 10
-326.3754
 20
-195.9691
 30
0.0
 10
-326.3121
 20
-195.7773
 30
0.0
 10
-326.1849
 20
-195.6412
 30
0.0
 10
-326.1849
 20
-195.6412
 30
0.0
 10
-326.0578
 20
-195.5046
 30
0.0
 10
-325.8929
 20
-195.4365
 30
0.0
 10
-325.6902
 20
-195.4365
 30
0.0
 10
-325.6902
 20
-195.4365
 30
0.0
 10
-325.4941
 20
-195.4365
 30
0.0
 10
-325.3339
 20
-195.5032
 30
0.0
 10
-325.2096
 20
-195.6369
 30
0.0
 10
-325.2096
 20
-195.6369
 30
0.0
 10
-325.0853
 20
-195.7706
 30
0.0
 10
-325.0229
 20
-195.9587
 30
0.0
 10
-325.0229
 20
-196.2012
 30
0.0
 10
-325.0229
 20
-196.2012
 30
0.0
 10
-325.0229
 20
-196.2158
 30
0.0
 10
-325.0234
 20
-196.238
 30
0.0
 10
-325.0243
 20
-196.2673
 30
0.0
 10
-325.0243
 20
-196.2673
 30
0.0
 10
-325.0243
 20
-196.2673
 30
0.0
 10
-326.1202
 20
-196.2673
 30
0.0
 10
-326.1202
 20
-196.2673
 30
0.0
 10
-326.1202
 20
-196.2673
 30
0.0
 10
-326.1108
 20
-196.4285
 30
0.0
 10
-326.0654
 20
-196.5523
 30
0.0
 10
-325.9832
 20
-196.6378
 30
0.0
 10
-325.9832
 20
-196.6378
 30
0.0
 10
-325.9014
 20
-196.7233
 30
0.0
 10
-325.7989
 20
-196.7663
 30
0.0
 10
-325.6765
 20
-196.7663
 30
0.0
 10
-325.6765
 20
-196.7663
 30
0.0
 10
-325.5853
 20
-196.7663
 30
0.0
 10
-325.5073
 20
-196.7422
 30
0.0
 10
-325.443
 20
-196.694
 30
0.0
 10
-325.443
 20
-196.694
 30
0.0
 10
-325.3783
 20
-196.6458
 30
0.0
 10
-325.3272
 20
-196.5688
 30
0.0
 10
-325.2894
 20
-196.463
 30
0.0
  0
SPLINE
  5
B7
330
1F
100
AcDbEntity
  8
Layer 1
 62
   250
100
AcDbSpline
210
0.0
220
0.0
230
1.0
 70
    11
 71
     3
 72
    24
 73
    20
 74
     0
 42
0.000000001
 43
0.0000000001
 40
0.0
 40
0.0
 40
0.0
 40
0.0
 40
0.1666666666666667
 40
0.1666666666666667
 40
0.1666666666666667
 40
0.1666666666666667
 40
0.3333333333333333
 40
0.3333333333333333
 40
0.3333333333333333
 40
0.3333333333333333
 40
0.5
 40
0.5
 40
0.5
 40
0.5
 40
0.6666666666666666
 40
0.6666666666666666
 40
0.6666666666666666
 40
0.6666666666666666
 40
1.0
 40
1.0
 40
1.0
 40
1.0
 10
-326.106
 20
-196.0632
 30
0.0
 10
-326.106
 20
-196.0632
 30
0.0
 10
-325.2866
 20
-196.0632
 30
0.0
 10
-325.2866
 20
-196.0632
 30
0.0
 10
-325.2866
 20
-196.0632
 30
0.0
 10
-325.2975
 20
-195.9393
 30
0.0
 10
-325.3291
 20
-195.8467
 30
0.0
 10
-325.3806
 20
-195.7848
 30
0.0
 10
-325.3806
 20
-195.7848
 30
0.0
 10
-325.4596
 20
-195.6889
 30
0.0
 10
-325.5626
 20
-195.6407
 30
0.0
 10
-325.6888
 20
-195.6407
 30
0.0
 10
-325.6888
 20
-195.6407
 30
0.0
 10
-325.8031
 20
-195.6407
 30
0.0
 10
-325.899
 20
-195.679
 30
0.0
 10
-325.977
 20
-195.7555
 30
0.0
 10
-325.977
 20
-195.7555
 30
0.0
 10
-326.0545
 20
-195.8321
 30
0.0
 10
-326.0975
 20
-195.9346
 30
0.0
 10
-326.106
 20
-196.0632
 30
0.0
  0
SPLINE
  5
B8
330
1F
100
AcDbEntity
  8
Layer 1
 62
   250
100
AcDbSpline
210
0.0
220
0.0
230
1.0
 70
    11
 71
     3
 72
   200
 73
   196
 74
     0
 42
0.000000001
 43
0.0000000001
 40
0.0
 40
0.0
 40
0.0
 40
0.0
 40
0.02
 40
0.02
 40
0.02
 40
0.02
 40
0.04
 40
0.04
 40
0.04
 40
0.04
 40
0.06
 40
0.06
 40
0.06
 40
0.06
 40
0.08
 40
0.08
 40
0.08
 40
0.08
 40
0.1
 40
0.1
 40
0.1
 40
0.1
 40
0.12
 40
0.12
 40
0.12
 40
0.12
 40
0.14
 40
0.14
 40
0.14
 40
0.14
 40
0.16
 40
0.16
 40
0.16
 40
0.16
 40
0.18
 40
0.18
 40
0.18
 40
0.18
 40
0.2
 40
0.2
 40
0.2
 40
0.2
 40
0.22
 40
0.22
 40
0.22
 40
0.22
 40
0.24
 40
0.24
 40
0.24
 40
0.24
 40
0.26
 40
0.26
 40
0.26
 40
0.26
 40
0.28
 40
0.28
 40
0.28
 40
0.28
 40
0.3
 40
0.3
 40
0.3
 40
0.3
 40
0.32
 40
0.32
 40
0.32
 40
0.32
 40
0.34
 40
0.34
 40
0.34
 40
0.34
 40
0.36
 40
0.36
 40
0.36
 40
0.36
 40
0.38
 40
0.38
 40
0.38
 40
0.38
 40
0.4
 40
0.4
 40
0.4
 40
0.4
 40
0.42
 40
0.42
 40
0.42
 40
0.42
 40
0.44
 40
0.44
 40
0.44
 40
0.44
 40
0.46
 40
0.46
 40
0.46
 40
0.46
 40
0.48
 40
0.48
 40
0.48
 40
0.48
 40
0.5
 40
0.5
 40
0.5
 40
0.5
 40
0.52
 40
0.52
 40
0.52
 40
0.52
 40
0.54
 40
0.54
 40
0.54
 40
0.54
 40
0.56
 40
0.56
 40
0.56
 40
0.56
 40
0.58
 40
0.58
 40
0.58
 40
0.58
 40
0.6
 40
0.6
 40
0.6
 40
0.6
 40
0.62
 40
0.62
 40
0.62
 40
0.62
 40
0.64
 40
0.64
 40
0.64
 40
0.64
 40
0.66
 40
0.66
 40
0.66
 40
0.66
 40
0.68
 40
0.68
 40
0.68
 40
0.68
 40
0.7
 40
0.7
 40
0.7
 40
0.7
 40
0.72
 40
0.72
 40
0.72
 40
0.72
 40
0.74
 40
0.74
 40
0.74
 40
0.74
 40
0.76
 40
0.76
 40
0.76
 40
0.76
 40
0.78
 40
0.78
 40
0.78
 40
0.78
 40
0.8
 40
0.8
 40
0.8
 40
0.8
 40
0.82
 40
0.82
 40
0.82
 40
0.82
 40
0.84
 40
0.84
 40
0.84
 40
0.84
 40
0.86
 40
0.86
 40
0.86
 40
0.86
 40
0.88
 40
0.88
 40
0.88
 40
0.88
 40
0.9
 40
0.9
 40
0.9
 40
0.9
 40
0.92
 40
0.92
 40
0.92
 40
0.92
 40
0.94
 40
0.94
 40
0.94
 40
0.94
 40
0.96
 40
0.96
 40
0.96
 40
0.96
 40
1.0
 40
1.0
 40
1.0
 40
1.0
 10
-323.29
 20
-196.712
 30
0.0
 10
-323.35
 20
-196.7815
 30
0.0
 10
-323.4171
 20
-196.8372
 30
0.0
 10
-323.4917
 20
-196.8793
 30
0.0
 10
-323.4917
 20
-196.8793
 30
0.0
 10
-323.5659
 20
-196.9213
 30
0.0
 10
-323.6406
 20
-196.9421
 30
0.0
 10
-323.7153
 20
-196.9421
 30
0.0
 10
-323.7153
 20
-196.9421
 30
0.0
 10
-323.7975
 20
-196.9421
 30
0.0
 10
-323.8774
 20
-196.918
 30
0.0
 10
-323.9553
 20
-196.8703
 30
0.0
 10
-323.9553
 20
-196.8703
 30
0.0
 10
-324.0328
 20
-196.8221
 30
0.0
 10
-324.0957
 20
-196.7484
 30
0.0
 10
-324.1444
 20
-196.6487
 30
0.0
 10
-324.1444
 20
-196.6487
 30
0.0
 10
-324.193
 20
-196.549
 30
0.0
 10
-324.2171
 20
-196.4393
 30
0.0
 10
-324.2171
 20
-196.3202
 30
0.0
 10
-324.2171
 20
-196.3202
 30
0.0
 10
-324.2171
 20
-196.1733
 30
0.0
 10
-324.1793
 20
-196.0263
 30
0.0
 10
-324.1042
 20
-195.8789
 30
0.0
 10
-324.1042
 20
-195.8789
 30
0.0
 10
-324.0291
 20
-195.7319
 30
0.0
 10
-323.9355
 20
-195.6213
 30
0.0
 10
-323.824
 20
-195.5471
 30
0.0
 10
-323.824
 20
-195.5471
 30
0.0
 10
-323.7124
 20
-195.4734
 30
0.0
 10
-323.6037
 20
-195.4365
 30
0.0
 10
-323.4988
 20
-195.4365
 30
0.0
 10
-323.4988
 20
-195.4365
 30
0.0
 10
-323.4185
 20
-195.4365
 30
0.0
 10
-323.3419
 20
-195.4573
 30
0.0
 10
-323.2687
 20
-195.4994
 30
0.0
 10
-323.2687
 20
-195.4994
 30
0.0
 10
-323.1959
 20
-195.5414
 30
0.0
 10
-323.1331
 20
-195.6057
 30
0.0
 10
-323.0806
 20
-195.6913
 30
0.0
 10
-323.0806
 20
-195.6913
 30
0.0
 10
-323.0806
 20
-195.6913
 30
0.0
 10
-323.0319
 20
-195.4762
 30
0.0
 10
-323.0319
 20
-195.4762
 30
0.0
 10
-323.0319
 20
-195.4762
 30
0.0
 10
-323.0319
 20
-195.4762
 30
0.0
 10
-322.7853
 20
-195.4762
 30
0.0
 10
-322.7853
 20
-195.4762
 30
0.0
 10
-322.7853
 20
-195.4762
 30
0.0
 10
-322.7853
 20
-195.4762
 30
0.0
 10
-322.9847
 20
-196.4062
 30
0.0
 10
-322.9847
 20
-196.4062
 30
0.0
 10
-322.9847
 20
-196.4062
 30
0.0
 10
-323.0126
 20
-196.5357
 30
0.0
 10
-323.0263
 20
-196.6071
 30
0.0
 10
-323.0263
 20
-196.6208
 30
0.0
 10
-323.0263
 20
-196.6208
 30
0.0
 10
-323.0263
 20
-196.6458
 30
0.0
 10
-323.0168
 20
-196.6676
 30
0.0
 10
-322.9979
 20
-196.6855
 30
0.0
 10
-322.9979
 20
-196.6855
 30
0.0
 10
-322.979
 20
-196.7035
 30
0.0
 10
-322.9559
 20
-196.7125
 30
0.0
 10
-322.9294
 20
-196.7125
 30
0.0
 10
-322.9294
 20
-196.7125
 30
0.0
 10
-322.8802
 20
-196.7125
 30
0.0
 10
-322.816
 20
-196.6846
 30
0.0
 10
-322.7366
 20
-196.6284
 30
0.0
 10
-322.7366
 20
-196.6284
 30
0.0
 10
-322.6312
 20
-196.5546
 30
0.0
 10
-322.5476
 20
-196.4559
 30
0.0
 10
-322.4861
 20
-196.3316
 30
0.0
 10
-322.4861
 20
-196.3316
 30
0.0
 10
-322.4247
 20
-196.2078
 30
0.0
 10
-322.394
 20
-196.0802
 30
0.0
 10
-322.394
 20
-195.9483
 30
0.0
 10
-322.394
 20
-195.9483
 30
0.0
 10
-322.394
 20
-195.7943
 30
0.0
 10
-322.4337
 20
-195.6506
 30
0.0
 10
-322.5126
 20
-195.5173
 30
0.0
 10
-322.5126
 20
-195.5173
 30
0.0
 10
-322.5915
 20
-195.3836
 30
0.0
 10
-322.7096
 20
-195.2768
 30
0.0
 10
-322.8665
 20
-195.1965
 30
0.0
 10
-322.8665
 20
-195.1965
 30
0.0
 10
-323.023
 20
-195.1166
 30
0.0
 10
-323.1964
 20
-195.0764
 30
0.0
 10
-323.3859
 20
-195.0764
 30
0.0
 10
-323.3859
 20
-195.0764
 30
0.0
 10
-323.6023
 20
-195.0764
 30
0.0
 10
-323.8003
 20
-195.127
 30
0.0
 10
-323.979
 20
-195.2277
 30
0.0
 10
-323.979
 20
-195.2277
 30
0.0
 10
-324.1581
 20
-195.3288
 30
0.0
 10
-324.297
 20
-195.4734
 30
0.0
 10
-324.3953
 20
-195.662
 30
0.0
 10
-324.3953
 20
-195.662
 30
0.0
 10
-324.4941
 20
-195.8505
 30
0.0
 10
-324.5432
 20
-196.0528
 30
0.0
 10
-324.5432
 20
-196.2687
 30
0.0
 10
-324.5432
 20
-196.2687
 30
0.0
 10
-324.5432
 20
-196.4946
 30
0.0
 10
-324.4941
 20
-196.6888
 30
0.0
 10
-324.3958
 20
-196.8519
 30
0.0
 10
-324.3958
 20
-196.8519
 30
0.0
 10
-324.297
 20
-197.0154
 30
0.0
 10
-324.1548
 20
-197.1359
 30
0.0
 10
-323.9686
 20
-197.2139
 30
0.0
 10
-323.9686
 20
-197.2139
 30
0.0
 10
-323.7824
 20
-197.2918
 30
0.0
 10
-323.5763
 20
-197.3306
 30
0.0
 10
-323.35
 20
-197.3306
 30
0.0
 10
-323.35
 20
-197.3306
 30
0.0
 10
-323.1075
 20
-197.3306
 30
0.0
 10
-322.9048
 20
-197.2899
 30
0.0
 10
-322.7413
 20
-197.2082
 30
0.0
 10
-322.7413
 20
-197.2082
 30
0.0
 10
-322.5778
 20
-197.1269
 30
0.0
 10
-322.4554
 20
-197.0277
 30
0.0
 10
-322.3741
 20
-196.9109
 30
0.0
 10
-322.3741
 20
-196.9109
 30
0.0
 10
-322.3741
 20
-196.9109
 30
0.0
 10
-322.1246
 20
-196.9109
 30
0.0
 10
-322.1246
 20
-196.9109
 30
0.0
 10
-322.1246
 20
-196.9109
 30
0.0
 10
-322.1719
 20
-197.0078
 30
0.0
 10
-322.2527
 20
-197.1071
 30
0.0
 10
-322.367
 20
-197.2077
 30
0.0
 10
-322.367
 20
-197.2077
 30
0.0
 10
-322.4814
 20
-197.3084
 30
0.0
 10
-322.6175
 20
-197.3882
 30
0.0
 10
-322.7753
 20
-197.4468
 30
0.0
 10
-322.7753
 20
-197.4468
 30
0.0
 10
-322.9332
 20
-197.5054
 30
0.0
 10
-323.1236
 20
-197.5347
 30
0.0
 10
-323.3457
 20
-197.5347
 30
0.0
 10
-323.3457
 20
-197.5347
 30
0.0
 10
-323.5508
 20
-197.5347
 30
0.0
 10
-323.7398
 20
-197.5083
 30
0.0
 10
-323.9128
 20
-197.4558
 30
0.0
 10
-323.9128
 20
-197.4558
 30
0.0
 10
-324.0862
 20
-197.4034
 30
0.0
 10
-324.2337
 20
-197.3244
 30
0.0
 10
-324.3556
 20
-197.2191
 30
0.0
 10
-324.3556
 20
-197.2191
 30
0.0
 10
-324.4775
 20
-197.1132
 30
0.0
 10
-324.5692
 20
-196.9918
 30
0.0
 10
-324.6311
 20
-196.8547
 30
0.0
 10
-324.6311
 20
-196.8547
 30
0.0
 10
-324.7086
 20
-196.6803
 30
0.0
 10
-324.7474
 20
-196.4923
 30
0.0
 10
-324.7474
 20
-196.2905
 30
0.0
 10
-324.7474
 20
-196.2905
 30
0.0
 10
-324.7474
 20
-196.066
 30
0.0
 10
-324.701
 20
-195.8515
 30
0.0
 10
-324.6089
 20
-195.6478
 30
0.0
 10
-324.6089
 20
-195.6478
 30
0.0
 10
-324.4959
 20
-195.3983
 30
0.0
 10
-324.3357
 20
-195.2069
 30
0.0
 10
-324.1283
 20
-195.0741
 30
0.0
 10
-324.1283
 20
-195.0741
 30
0.0
 10
-323.9208
 20
-194.9413
 30
0.0
 10
-323.6694
 20
-194.8751
 30
0.0
 10
-323.3736
 20
-194.8751
 30
0.0
 10
-323.3736
 20
-194.8751
 30
0.0
 10
-323.1444
 20
-194.8751
 30
0.0
 10
-322.9384
 20
-194.9219
 30
0.0
 10
-322.756
 20
-195.0155
 30
0.0
 10
-322.756
 20
-195.0155
 30
0.0
 10
-322.5735
 20
-195.109
 30
0.0
 10
-322.4294
 20
-195.2485
 30
0.0
 10
-322.3245
 20
-195.4337
 30
0.0
 10
-322.3245
 20
-195.4337
 30
0.0
 10
-322.2347
 20
-195.593
 30
0.0
 10
-322.1898
 20
-195.7664
 30
0.0
 10
-322.1898
 20
-195.9535
 30
0.0
 10
-322.1898
 20
-195.9535
 30
0.0
 10
-322.1898
 20
-196.221
 30
0.0
 10
-322.2839
 20
-196.4582
 30
0.0
 10
-322.4719
 20
-196.6657
 30
0.0
 10
-322.4719
 20
-196.6657
 30
0.0
 10
-322.6402
 20
-196.8519
 30
0.0
 10
-322.8235
 20
-196.945
 30
0.0
 10
-323.023
 20
-196.945
 30
0.0
 10
-323.023
 20
-196.945
 30
0.0
 10
-323.0868
 20
-196.945
 30
0.0
 10
-323.1378
 20
-196.935
 30
0.0
 10
-323.177
 20
-196.9157
 30
0.0
 10
-323.177
 20
-196.9157
 30
0.0
 10
-323.2162
 20
-196.8963
 30
0.0
 10
-323.2451
 20
-196.8684
 30
0.0
 10
-323.2635
 20
-196.832
 30
0.0
 10
-323.2635
 20
-196.832
 30
0.0
 10
-323.2758
 20
-196.8089
 30
0.0
 10
-323.2843
 20
-196.7687
 30
0.0
 10
-323.29
 20
-196.712
 30
0.0
  0
SPLINE
  5
B9
330
1F
100
AcDbEntity
  8
Layer 1
 62
   250
100
AcDbSpline
210
0.0
220
0.0
230
1.0
 70
    11
 71
     3
 72
    52
 73
    48
 74
     0
 42
0.000000001
 43
0.0000000001
 40
0.0
 40
0.0
 40
0.0
 40
0.0
 40
0.0769230769230769
 40
0.0769230769230769
 40
0.0769230769230769
 40
0.0769230769230769
 40
0.1538461538461539
 40
0.1538461538461539
 40
0.1538461538461539
 40
0.1538461538461539
 40
0.2307692307692308
 40
0.2307692307692308
 40
0.2307692307692308
 40
0.2307692307692308
 40
0.3076923076923077
 40
0.3076923076923077
 40
0.3076923076923077
 40
0.3076923076923077
 40
0.3846153846153846
 40
0.3846153846153846
 40
0.3846153846153846
 40
0.3846153846153846
 40
0.4615384615384616
 40
0.4615384615384616
 40
0.4615384615384616
 40
0.4615384615384616
 40
0.5384615384615384
 40
0.5384615384615384
 40
0.5384615384615384
 40
0.5384615384615384
 40
0.6153846153846154
 40
0.6153846153846154
 40
0.6153846153846154
 40
0.6153846153846154
 40
0.6923076923076923
 40
0.6923076923076923
 40
0.6923076923076923
 40
0.6923076923076923
 40
0.7692307692307693
 40
0.7692307692307693
 40
0.7692307692307693
 40
0.7692307692307693
 40
0.8461538461538461
 40
0.8461538461538461
 40
0.8461538461538461
 40
0.8461538461538461
 40
1.0
 40
1.0
 40
1.0
 40
1.0
 10
-323.9619
 20
-196.3377
 30
0.0
 10
-323.9619
 20
-196.4644
 30
0.0
 10
-323.9317
 20
-196.5627
 30
0.0
 10
-323.8717
 20
-196.6326
 30
0.0
 10
-323.8717
 20
-196.6326
 30
0.0
 10
-323.8117
 20
-196.703
 30
0.0
 10
-323.7431
 20
-196.738
 30
0.0
 10
-323.6652
 20
-196.738
 30
0.0
 10
-323.6652
 20
-196.738
 30
0.0
 10
-323.6137
 20
-196.738
 30
0.0
 10
-323.5593
 20
-196.7224
 30
0.0
 10
-323.5017
 20
-196.6917
 30
0.0
 10
-323.5017
 20
-196.6917
 30
0.0
 10
-323.4445
 20
-196.6605
 30
0.0
 10
-323.3897
 20
-196.6146
 30
0.0
 10
-323.3377
 20
-196.5537
 30
0.0
 10
-323.3377
 20
-196.5537
 30
0.0
 10
-323.2852
 20
-196.4927
 30
0.0
 10
-323.2427
 20
-196.4152
 30
0.0
 10
-323.2096
 20
-196.3217
 30
0.0
 10
-323.2096
 20
-196.3217
 30
0.0
 10
-323.1761
 20
-196.2281
 30
0.0
 10
-323.1595
 20
-196.134
 30
0.0
 10
-323.1595
 20
-196.0395
 30
0.0
 10
-323.1595
 20
-196.0395
 30
0.0
 10
-323.1595
 20
-195.9143
 30
0.0
 10
-323.1907
 20
-195.8165
 30
0.0
 10
-323.2531
 20
-195.7475
 30
0.0
 10
-323.2531
 20
-195.7475
 30
0.0
 10
-323.3155
 20
-195.678
 30
0.0
 10
-323.3916
 20
-195.6435
 30
0.0
 10
-323.4809
 20
-195.6435
 30
0.0
 10
-323.4809
 20
-195.6435
 30
0.0
 10
-323.5399
 20
-195.6435
 30
0.0
 10
-323.5957
 20
-195.6586
 30
0.0
 10
-323.6482
 20
-195.6884
 30
0.0
 10
-323.6482
 20
-195.6884
 30
0.0
 10
-323.7001
 20
-195.7187
 30
0.0
 10
-323.7507
 20
-195.7669
 30
0.0
 10
-323.7999
 20
-195.8335
 30
0.0
 10
-323.7999
 20
-195.8335
 30
0.0
 10
-323.8485
 20
-195.8997
 30
0.0
 10
-323.8882
 20
-195.9805
 30
0.0
 10
-323.9175
 20
-196.0759
 30
0.0
 10
-323.9175
 20
-196.0759
 30
0.0
 10
-323.9473
 20
-196.1709
 30
0.0
 10
-323.9619
 20
-196.2583
 30
0.0
 10
-323.9619
 20
-196.3377
 30
0.0
  0
SPLINE
  5
BA
330
1F
100
AcDbEntity
  8
Layer 1
 62
   250
100
AcDbSpline
210
0.0
220
0.0
230
1.0
 70
    11
 71
     3
 72
    64
 73
    60
 74
     0
 42
0.000000001
 43
0.0000000001
 40
0.0
 40
0.0
 40
0.0
 40
0.0
 40
0.0625
 40
0.0625
 40
0.0625
 40
0.0625
 40
0.125
 40
0.125
 40
0.125
 40
0.125
 40
0.1875
 40
0.1875
 40
0.1875
 40
0.1875
 40
0.25
 40
0.25
 40
0.25
 40
0.25
 40
0.3125
 40
0.3125
 40
0.3125
 40
0.3125
 40
0.375
 40
0.375
 40
0.375
 40
0.375
 40
0.4375
 40
0.4375
 40
0.4375
 40
0.4375
 40
0.5
 40
0.5
 40
0.5
 40
0.5
 40
0.5625
 40
0.5625
 40
0.5625
 40
0.5625
 40
0.625
 40
0.625
 40
0.625
 40
0.625
 40
0.6875
 40
0.6875
 40
0.6875
 40
0.6875
 40
0.75
 40
0.75
 40
0.75
 40
0.75
 40
0.8125
 40
0.8125
 40
0.8125
 40
0.8125
 40
0.875
 40
0.875
 40
0.875
 40
0.875
 40
1.0
 40
1.0
 40
1.0
 40
1.0
 10
-321.8378
 20
-197.5035
 30
0.0
 10
-321.8378
 20
-197.5035
 30
0.0
 10
-321.8378
 20
-195.4677
 30
0.0
 10
-321.8378
 20
-195.4677
 30
0.0
 10
-321.8378
 20
-195.4677
 30
0.0
 10
-321.8378
 20
-195.4677
 30
0.0
 10
-321.6109
 20
-195.4677
 30
0.0
 10
-321.6109
 20
-195.4677
 30
0.0
 10
-321.6109
 20
-195.4677
 30
0.0
 10
-321.6109
 20
-195.4677
 30
0.0
 10
-321.6109
 20
-195.661
 30
0.0
 10
-321.6109
 20
-195.661
 30
0.0
 10
-321.6109
 20
-195.661
 30
0.0
 10
-321.5575
 20
-195.5863
 30
0.0
 10
-321.497
 20
-195.5301
 30
0.0
 10
-321.4295
 20
-195.4928
 30
0.0
 10
-321.4295
 20
-195.4928
 30
0.0
 10
-321.3624
 20
-195.4554
 30
0.0
 10
-321.2806
 20
-195.4365
 30
0.0
 10
-321.1847
 20
-195.4365
 30
0.0
 10
-321.1847
 20
-195.4365
 30
0.0
 10
-321.059
 20
-195.4365
 30
0.0
 10
-320.9484
 20
-195.4687
 30
0.0
 10
-320.8525
 20
-195.5334
 30
0.0
 10
-320.8525
 20
-195.5334
 30
0.0
 10
-320.7565
 20
-195.5977
 30
0.0
 10
-320.6842
 20
-195.6889
 30
0.0
 10
-320.6351
 20
-195.8061
 30
0.0
 10
-320.6351
 20
-195.8061
 30
0.0
 10
-320.5864
 20
-195.9238
 30
0.0
 10
-320.5618
 20
-196.0523
 30
0.0
 10
-320.5618
 20
-196.1926
 30
0.0
 10
-320.5618
 20
-196.1926
 30
0.0
 10
-320.5618
 20
-196.3424
 30
0.0
 10
-320.5888
 20
-196.4776
 30
0.0
 10
-320.6426
 20
-196.5981
 30
0.0
 10
-320.6426
 20
-196.5981
 30
0.0
 10
-320.6965
 20
-196.7181
 30
0.0
 10
-320.775
 20
-196.8103
 30
0.0
 10
-320.878
 20
-196.8746
 30
0.0
 10
-320.878
 20
-196.8746
 30
0.0
 10
-320.9805
 20
-196.9384
 30
0.0
 10
-321.0887
 20
-196.9705
 30
0.0
 10
-321.2022
 20
-196.9705
 30
0.0
 10
-321.2022
 20
-196.9705
 30
0.0
 10
-321.2853
 20
-196.9705
 30
0.0
 10
-321.36
 20
-196.953
 30
0.0
 10
-321.4257
 20
-196.918
 30
0.0
 10
-321.4257
 20
-196.918
 30
0.0
 10
-321.4918
 20
-196.8831
 30
0.0
 10
-321.5457
 20
-196.8391
 30
0.0
 10
-321.5882
 20
-196.7857
 30
0.0
 10
-321.5882
 20
-196.7857
 30
0.0
 10
-321.5882
 20
-196.7857
 30
0.0
 10
-321.5882
 20
-197.5035
 30
0.0
 10
-321.5882
 20
-197.5035
 30
0.0
 10
-321.5882
 20
-197.5035
 30
0.0
 10
-321.5882
 20
-197.5035
 30
0.0
 10
-321.8378
 20
-197.5035
 30
0.0
 10
-321.8378
 20
-197.5035
 30
0.0
  0
SPLINE
  5
BB
330
1F
100
AcDbEntity
  8
Layer 1
 62
   250
100
AcDbSpline
210
0.0
220
0.0
230
1.0
 70
    11
 71
     3
 72
    36
 73
    32
 74
     0
 42
0.000000001
 43
0.0000000001
 40
0.0
 40
0.0
 40
0.0
 40
0.0
 40
0.1111111111111111
 40
0.1111111111111111
 40
0.1111111111111111
 40
0.1111111111111111
 40
0.2222222222222222
 40
0.2222222222222222
 40
0.2222222222222222
 40
0.2222222222222222
 40
0.3333333333333333
 40
0.3333333333333333
 40
0.3333333333333333
 40
0.3333333333333333
 40
0.4444444444444444
 40
0.4444444444444444
 40
0.4444444444444444
 40
0.4444444444444444
 40
0.5555555555555556
 40
0.5555555555555556
 40
0.5555555555555556
 40
0.5555555555555556
 40
0.6666666666666666
 40
0.6666666666666666
 40
0.6666666666666666
 40
0.6666666666666666
 40
0.7777777777777778
 40
0.7777777777777778
 40
0.7777777777777778
 40
0.7777777777777778
 40
1.0
 40
1.0
 40
1.0
 40
1.0
 10
-321.6109
 20
-196.2125
 30
0.0
 10
-321.6109
 20
-196.401
 30
0.0
 10
-321.5727
 20
-196.5405
 30
0.0
 10
-321.4966
 20
-196.6307
 30
0.0
 10
-321.4966
 20
-196.6307
 30
0.0
 10
-321.42
 20
-196.721
 30
0.0
 10
-321.3274
 20
-196.7663
 30
0.0
 10
-321.2187
 20
-196.7663
 30
0.0
 10
-321.2187
 20
-196.7663
 30
0.0
 10
-321.1081
 20
-196.7663
 30
0.0
 10
-321.0136
 20
-196.7196
 30
0.0
 10
-320.9352
 20
-196.626
 30
0.0
 10
-320.9352
 20
-196.626
 30
0.0
 10
-320.8562
 20
-196.5324
 30
0.0
 10
-320.817
 20
-196.3878
 30
0.0
 10
-320.817
 20
-196.1917
 30
0.0
 10
-320.817
 20
-196.1917
 30
0.0
 10
-320.817
 20
-196.0046
 30
0.0
 10
-320.8553
 20
-195.8647
 30
0.0
 10
-320.9323
 20
-195.7716
 30
0.0
 10
-320.9323
 20
-195.7716
 30
0.0
 10
-321.0094
 20
-195.6785
 30
0.0
 10
-321.101
 20
-195.6322
 30
0.0
 10
-321.2078
 20
-195.6322
 30
0.0
 10
-321.2078
 20
-195.6322
 30
0.0
 10
-321.3137
 20
-195.6322
 30
0.0
 10
-321.4073
 20
-195.6818
 30
0.0
 10
-321.4885
 20
-195.7806
 30
0.0
 10
-321.4885
 20
-195.7806
 30
0.0
 10
-321.5703
 20
-195.8798
 30
0.0
 10
-321.6109
 20
-196.0235
 30
0.0
 10
-321.6109
 20
-196.2125
 30
0.0
  0
SPLINE
  5
BC
330
1F
100
AcDbEntity
  8
Layer 1
 62
   250
100
AcDbSpline
210
0.0
220
0.0
230
1.0
 70
    11
 71
     3
 72
    64
 73
    60
 74
     0
 42
0.000000001
 43
0.0000000001
 40
0.0
 40
0.0
 40
0.0
 40
0.0
 40
0.0625
 40
0.0625
 40
0.0625
 40
0.0625
 40
0.125
 40
0.125
 40
0.125
 40
0.125
 40
0.1875
 40
0.1875
 40
0.1875
 40
0.1875
 40
0.25
 40
0.25
 40
0.25
 40
0.25
 40
0.3125
 40
0.3125
 40
0.3125
 40
0.3125
 40
0.375
 40
0.375
 40
0.375
 40
0.375
 40
0.4375
 40
0.4375
 40
0.4375
 40
0.4375
 40
0.5
 40
0.5
 40
0.5
 40
0.5
 40
0.5625
 40
0.5625
 40
0.5625
 40
0.5625
 40
0.625
 40
0.625
 40
0.625
 40
0.625
 40
0.6875
 40
0.6875
 40
0.6875
 40
0.6875
 40
0.75
 40
0.75
 40
0.75
 40
0.75
 40
0.8125
 40
0.8125
 40
0.8125
 40
0.8125
 40
0.875
 40
0.875
 40
0.875
 40
0.875
 40
1.0
 40
1.0
 40
1.0
 40
1.0
 10
-320.4309
 20
-196.9393
 30
0.0
 10
-320.4309
 20
-196.9393
 30
0.0
 10
-319.8936
 20
-196.177
 30
0.0
 10
-319.8936
 20
-196.177
 30
0.0
 10
-319.8936
 20
-196.177
 30
0.0
 10
-319.8936
 20
-196.177
 30
0.0
 10
-320.3912
 20
-195.4677
 30
0.0
 10
-320.3912
 20
-195.4677
 30
0.0
 10
-320.3912
 20
-195.4677
 30
0.0
 10
-320.3912
 20
-195.4677
 30
0.0
 10
-320.0845
 20
-195.4677
 30
0.0
 10
-320.0845
 20
-195.4677
 30
0.0
 10
-320.0845
 20
-195.4677
 30
0.0
 10
-320.0845
 20
-195.4677
 30
0.0
 10
-319.852
 20
-195.8151
 30
0.0
 10
-319.852
 20
-195.8151
 30
0.0
 10
-319.852
 20
-195.8151
 30
0.0
 10
-319.809
 20
-195.8803
 30
0.0
 10
-319.775
 20
-195.9332
 30
0.0
 10
-319.7509
 20
-195.9748
 30
0.0
 10
-319.7509
 20
-195.9748
 30
0.0
 10
-319.7088
 20
-195.9157
 30
0.0
 10
-319.6715
 20
-195.8623
 30
0.0
 10
-319.6379
 20
-195.8146
 30
0.0
 10
-319.6379
 20
-195.8146
 30
0.0
 10
-319.6379
 20
-195.8146
 30
0.0
 10
-319.3931
 20
-195.4677
 30
0.0
 10
-319.3931
 20
-195.4677
 30
0.0
 10
-319.3931
 20
-195.4677
 30
0.0
 10
-319.3931
 20
-195.4677
 30
0.0
 10
-319.0883
 20
-195.4677
 30
0.0
 10
-319.0883
 20
-195.4677
 30
0.0
 10
-319.0883
 20
-195.4677
 30
0.0
 10
-319.0883
 20
-195.4677
 30
0.0
 10
-319.5888
 20
-196.177
 30
0.0
 10
-319.5888
 20
-196.177
 30
0.0
 10
-319.5888
 20
-196.177
 30
0.0
 10
-319.5888
 20
-196.177
 30
0.0
 10
-319.0557
 20
-196.9393
 30
0.0
 10
-319.0557
 20
-196.9393
 30
0.0
 10
-319.0557
 20
-196.9393
 30
0.0
 10
-319.0557
 20
-196.9393
 30
0.0
 10
-319.3591
 20
-196.9393
 30
0.0
 10
-319.3591
 20
-196.9393
 30
0.0
 10
-319.3591
 20
-196.9393
 30
0.0
 10
-319.3591
 20
-196.9393
 30
0.0
 10
-319.6634
 20
-196.4856
 30
0.0
 10
-319.6634
 20
-196.4856
 30
0.0
 10
-319.6634
 20
-196.4856
 30
0.0
 10
-319.6634
 20
-196.4856
 30
0.0
 10
-319.7329
 20
-196.3765
 30
0.0
 10
-319.7329
 20
-196.3765
 30
0.0
 10
-319.7329
 20
-196.3765
 30
0.0
 10
-319.7329
 20
-196.3765
 30
0.0
 10
-320.1261
 20
-196.9393
 30
0.0
 10
-320.1261
 20
-196.9393
 30
0.0
 10
-320.1261
 20
-196.9393
 30
0.0
 10
-320.1261
 20
-196.9393
 30
0.0
 10
-320.4309
 20
-196.9393
 30
0.0
 10
-320.4309
 20
-196.9393
 30
0.0
  0
SPLINE
  5
BD
330
1F
100
AcDbEntity
  8
Layer 1
 62
   250
100
AcDbSpline
210
0.0
220
0.0
230
1.0
 70
    11
 71
     3
 72
    20
 73
    16
 74
     0
 42
0.000000001
 43
0.0000000001
 40
0.0
 40
0.0
 40
0.0
 40
0.0
 40
0.2
 40
0.2
 40
0.2
 40
0.2
 40
0.4
 40
0.4
 40
0.4
 40
0.4
 40
0.6
 40
0.6
 40
0.6
 40
0.6
 40
1.0
 40
1.0
 40
1.0
 40
1.0
 10
-318.8487
 20
-196.9393
 30
0.0
 10
-318.8487
 20
-196.9393
 30
0.0
 10
-318.8487
 20
-194.9092
 30
0.0
 10
-318.8487
 20
-194.9092
 30
0.0
 10
-318.8487
 20
-194.9092
 30
0.0
 10
-318.8487
 20
-194.9092
 30
0.0
 10
-318.5992
 20
-194.9092
 30
0.0
 10
-318.5992
 20
-194.9092
 30
0.0
 10
-318.5992
 20
-194.9092
 30
0.0
 10
-318.5992
 20
-194.9092
 30
0.0
 10
-318.5992
 20
-196.9393
 30
0.0
 10
-318.5992
 20
-196.9393
 30
0.0
 10
-318.5992
 20
-196.9393
 30
0.0
 10
-318.5992
 20
-196.9393
 30
0.0
 10
-318.8487
 20
-196.9393
 30
0.0
 10
-318.8487
 20
-196.9393
 30
0.0
  0
SPLINE
  5
BE
330
1F
100
AcDbEntity
  8
Layer 1
 62
   250
100
AcDbSpline
210
0.0
220
0.0
230
1.0
 70
    11
 71
     3
 72
    20
 73
    16
 74
     0
 42
0.000000001
 43
0.0000000001
 40
0.0
 40
0.0
 40
0.0
 40
0.0
 40
0.2
 40
0.2
 40
0.2
 40
0.2
 40
0.4
 40
0.4
 40
0.4
 40
0.4
 40
0.6
 40
0.6
 40
0.6
 40
0.6
 40
1.0
 40
1.0
 40
1.0
 40
1.0
 10
-318.1423
 20
-196.9393
 30
0.0
 10
-318.1423
 20
-196.9393
 30
0.0
 10
-318.1423
 20
-196.6558
 30
0.0
 10
-318.1423
 20
-196.6558
 30
0.0
 10
-318.1423
 20
-196.6558
 30
0.0
 10
-318.1423
 20
-196.6558
 30
0.0
 10
-317.8587
 20
-196.6558
 30
0.0
 10
-317.8587
 20
-196.6558
 30
0.0
 10
-317.8587
 20
-196.6558
 30
0.0
 10
-317.8587
 20
-196.6558
 30
0.0
 10
-317.8587
 20
-196.9393
 30
0.0
 10
-317.8587
 20
-196.9393
 30
0.0
 10
-317.8587
 20
-196.9393
 30
0.0
 10
-317.8587
 20
-196.9393
 30
0.0
 10
-318.1423
 20
-196.9393
 30
0.0
 10
-318.1423
 20
-196.9393
 30
0.0
  0
SPLINE
  5
BF
330
1F
100
AcDbEntity
  8
Layer 1
 62
   250
100
AcDbSpline
210
0.0
220
0.0
230
1.0
 70
    11
 71
     3
 72
    80
 73
    76
 74
     0
 42
0.000000001
 43
0.0000000001
 40
0.0
 40
0.0
 40
0.0
 40
0.0
 40
0.05
 40
0.05
 40
0.05
 40
0.05
 40
0.1
 40
0.1
 40
0.1
 40
0.1
 40
0.15
 40
0.15
 40
0.15
 40
0.15
 40
0.2
 40
0.2
 40
0.2
 40
0.2
 40
0.25
 40
0.25
 40
0.25
 40
0.25
 40
0.3
 40
0.3
 40
0.3
 40
0.3
 40
0.35
 40
0.35
 40
0.35
 40
0.35
 40
0.4
 40
0.4
 40
0.4
 40
0.4
 40
0.45
 40
0.45
 40
0.45
 40
0.45
 40
0.5
 40
0.5
 40
0.5
 40
0.5
 40
0.55
 40
0.55
 40
0.55
 40
0.55
 40
0.6
 40
0.6
 40
0.6
 40
0.6
 40
0.65
 40
0.65
 40
0.65
 40
0.65
 40
0.7
 40
0.7
 40
0.7
 40
0.7
 40
0.75
 40
0.75
 40
0.75
 40
0.75
 40
0.8
 40
0.8
 40
0.8
 40
0.8
 40
0.85
 40
0.85
 40
0.85
 40
0.85
 40
0.9
 40
0.9
 40
0.9
 40
0.9
 40
1.0
 40
1.0
 40
1.0
 40
1.0
 10
-316.4642
 20
-196.9393
 30
0.0
 10
-316.4642
 20
-196.9393
 30
0.0
 10
-316.4642
 20
-196.7205
 30
0.0
 10
-316.4642
 20
-196.7205
 30
0.0
 10
-316.4642
 20
-196.7205
 30
0.0
 10
-316.5785
 20
-196.8873
 30
0.0
 10
-316.7335
 20
-196.9705
 30
0.0
 10
-316.9296
 20
-196.9705
 30
0.0
 10
-316.9296
 20
-196.9705
 30
0.0
 10
-317.0161
 20
-196.9705
 30
0.0
 10
-317.0969
 20
-196.9539
 30
0.0
 10
-317.1721
 20
-196.9209
 30
0.0
 10
-317.1721
 20
-196.9209
 30
0.0
 10
-317.2472
 20
-196.8873
 30
0.0
 10
-317.303
 20
-196.8457
 30
0.0
 10
-317.3394
 20
-196.7956
 30
0.0
 10
-317.3394
 20
-196.7956
 30
0.0
 10
-317.3757
 20
-196.7451
 30
0.0
 10
-317.4013
 20
-196.6836
 30
0.0
 10
-317.4159
 20
-196.6109
 30
0.0
 10
-317.4159
 20
-196.6109
 30
0.0
 10
-317.4258
 20
-196.5617
 30
0.0
 10
-317.431
 20
-196.4842
 30
0.0
 10
-317.431
 20
-196.3784
 30
0.0
 10
-317.431
 20
-196.3784
 30
0.0
 10
-317.431
 20
-196.3784
 30
0.0
 10
-317.431
 20
-195.4677
 30
0.0
 10
-317.431
 20
-195.4677
 30
0.0
 10
-317.431
 20
-195.4677
 30
0.0
 10
-317.431
 20
-195.4677
 30
0.0
 10
-317.1815
 20
-195.4677
 30
0.0
 10
-317.1815
 20
-195.4677
 30
0.0
 10
-317.1815
 20
-195.4677
 30
0.0
 10
-317.1815
 20
-195.4677
 30
0.0
 10
-317.1815
 20
-196.282
 30
0.0
 10
-317.1815
 20
-196.282
 30
0.0
 10
-317.1815
 20
-196.282
 30
0.0
 10
-317.1815
 20
-196.4119
 30
0.0
 10
-317.1763
 20
-196.4998
 30
0.0
 10
-317.1664
 20
-196.5447
 30
0.0
 10
-317.1664
 20
-196.5447
 30
0.0
 10
-317.1508
 20
-196.6104
 30
0.0
 10
-317.1177
 20
-196.6614
 30
0.0
 10
-317.0667
 20
-196.6988
 30
0.0
 10
-317.0667
 20
-196.6988
 30
0.0
 10
-317.0161
 20
-196.7361
 30
0.0
 10
-316.9537
 20
-196.755
 30
0.0
 10
-316.8791
 20
-196.755
 30
0.0
 10
-316.8791
 20
-196.755
 30
0.0
 10
-316.8044
 20
-196.755
 30
0.0
 10
-316.7345
 20
-196.7361
 30
0.0
 10
-316.6693
 20
-196.6978
 30
0.0
 10
-316.6693
 20
-196.6978
 30
0.0
 10
-316.604
 20
-196.6595
 30
0.0
 10
-316.5577
 20
-196.6071
 30
0.0
 10
-316.5303
 20
-196.5414
 30
0.0
 10
-316.5303
 20
-196.5414
 30
0.0
 10
-316.5034
 20
-196.4757
 30
0.0
 10
-316.4897
 20
-196.3798
 30
0.0
 10
-316.4897
 20
-196.2546
 30
0.0
 10
-316.4897
 20
-196.2546
 30
0.0
 10
-316.4897
 20
-196.2546
 30
0.0
 10
-316.4897
 20
-195.4677
 30
0.0
 10
-316.4897
 20
-195.4677
 30
0.0
 10
-316.4897
 20
-195.4677
 30
0.0
 10
-316.4897
 20
-195.4677
 30
0.0
 10
-316.2402
 20
-195.4677
 30
0.0
 10
-316.2402
 20
-195.4677
 30
0.0
 10
-316.2402
 20
-195.4677
 30
0.0
 10
-316.2402
 20
-195.4677
 30
0.0
 10
-316.2402
 20
-196.9393
 30
0.0
 10
-316.2402
 20
-196.9393
 30
0.0
 10
-316.2402
 20
-196.9393
 30
0.0
 10
-316.2402
 20
-196.9393
 30
0.0
 10
-316.4642
 20
-196.9393
 30
0.0
 10
-316.4642
 20
-196.9393
 30
0.0
  0
SPLINE
  5
C0
330
1F
100
AcDbEntity
  8
Layer 1
 62
   250
100
AcDbSpline
210
0.0
220
0.0
230
1.0
 70
    11
 71
     3
 72
    72
 73
    68
 74
     0
 42
0.000000001
 43
0.0000000001
 40
0.0
 40
0.0
 40
0.0
 40
0.0
 40
0.0555555555555556
 40
0.0555555555555556
 40
0.0555555555555556
 40
0.0555555555555556
 40
0.1111111111111111
 40
0.1111111111111111
 40
0.1111111111111111
 40
0.1111111111111111
 40
0.1666666666666667
 40
0.1666666666666667
 40
0.1666666666666667
 40
0.1666666666666667
 40
0.2222222222222222
 40
0.2222222222222222
 40
0.2222222222222222
 40
0.2222222222222222
 40
0.2777777777777778
 40
0.2777777777777778
 40
0.2777777777777778
 40
0.2777777777777778
 40
0.3333333333333333
 40
0.3333333333333333
 40
0.3333333333333333
 40
0.3333333333333333
 40
0.3888888888888889
 40
0.3888888888888889
 40
0.3888888888888889
 40
0.3888888888888889
 40
0.4444444444444444
 40
0.4444444444444444
 40
0.4444444444444444
 40
0.4444444444444444
 40
0.5
 40
0.5
 40
0.5
 40
0.5
 40
0.5555555555555556
 40
0.5555555555555556
 40
0.5555555555555556
 40
0.5555555555555556
 40
0.6111111111111112
 40
0.6111111111111112
 40
0.6111111111111112
 40
0.6111111111111112
 40
0.6666666666666666
 40
0.6666666666666666
 40
0.6666666666666666
 40
0.6666666666666666
 40
0.7222222222222222
 40
0.7222222222222222
 40
0.7222222222222222
 40
0.7222222222222222
 40
0.7777777777777778
 40
0.7777777777777778
 40
0.7777777777777778
 40
0.7777777777777778
 40
0.8333333333333334
 40
0.8333333333333334
 40
0.8333333333333334
 40
0.8333333333333334
 40
0.8888888888888888
 40
0.8888888888888888
 40
0.8888888888888888
 40
0.8888888888888888
 40
1.0
 40
1.0
 40
1.0
 40
1.0
 10
-315.8484
 20
-196.9393
 30
0.0
 10
-315.8484
 20
-196.9393
 30
0.0
 10
-315.8484
 20
-194.9092
 30
0.0
 10
-315.8484
 20
-194.9092
 30
0.0
 10
-315.8484
 20
-194.9092
 30
0.0
 10
-315.8484
 20
-194.9092
 30
0.0
 10
-315.5988
 20
-194.9092
 30
0.0
 10
-315.5988
 20
-194.9092
 30
0.0
 10
-315.5988
 20
-194.9092
 30
0.0
 10
-315.5988
 20
-194.9092
 30
0.0
 10
-315.5988
 20
-195.6397
 30
0.0
 10
-315.5988
 20
-195.6397
 30
0.0
 10
-315.5988
 20
-195.6397
 30
0.0
 10
-315.4831
 20
-195.5041
 30
0.0
 10
-315.337
 20
-195.4365
 30
0.0
 10
-315.1603
 20
-195.4365
 30
0.0
 10
-315.1603
 20
-195.4365
 30
0.0
 10
-315.0521
 20
-195.4365
 30
0.0
 10
-314.958
 20
-195.4578
 30
0.0
 10
-314.8777
 20
-195.5008
 30
0.0
 10
-314.8777
 20
-195.5008
 30
0.0
 10
-314.7978
 20
-195.5438
 30
0.0
 10
-314.7407
 20
-195.6029
 30
0.0
 10
-314.7062
 20
-195.6785
 30
0.0
 10
-314.7062
 20
-195.6785
 30
0.0
 10
-314.6717
 20
-195.7541
 30
0.0
 10
-314.6547
 20
-195.8642
 30
0.0
 10
-314.6547
 20
-196.0079
 30
0.0
 10
-314.6547
 20
-196.0079
 30
0.0
 10
-314.6547
 20
-196.0079
 30
0.0
 10
-314.6547
 20
-196.9393
 30
0.0
 10
-314.6547
 20
-196.9393
 30
0.0
 10
-314.6547
 20
-196.9393
 30
0.0
 10
-314.6547
 20
-196.9393
 30
0.0
 10
-314.9042
 20
-196.9393
 30
0.0
 10
-314.9042
 20
-196.9393
 30
0.0
 10
-314.9042
 20
-196.9393
 30
0.0
 10
-314.9042
 20
-196.9393
 30
0.0
 10
-314.9042
 20
-196.0088
 30
0.0
 10
-314.9042
 20
-196.0088
 30
0.0
 10
-314.9042
 20
-196.0088
 30
0.0
 10
-314.9042
 20
-195.8845
 30
0.0
 10
-314.9311
 20
-195.7938
 30
0.0
 10
-314.9845
 20
-195.7371
 30
0.0
 10
-314.9845
 20
-195.7371
 30
0.0
 10
-315.0384
 20
-195.6804
 30
0.0
 10
-315.114
 20
-195.652
 30
0.0
 10
-315.2123
 20
-195.652
 30
0.0
 10
-315.2123
 20
-195.652
 30
0.0
 10
-315.2855
 20
-195.652
 30
0.0
 10
-315.3545
 20
-195.6709
 30
0.0
 10
-315.4193
 20
-195.7092
 30
0.0
 10
-315.4193
 20
-195.7092
 30
0.0
 10
-315.484
 20
-195.7475
 30
0.0
 10
-315.5299
 20
-195.7995
 30
0.0
 10
-315.5577
 20
-195.8652
 30
0.0
 10
-315.5577
 20
-195.8652
 30
0.0
 10
-315.5851
 20
-195.9304
 30
0.0
 10
-315.5988
 20
-196.0206
 30
0.0
 10
-315.5988
 20
-196.1359
 30
0.0
 10
-315.5988
 20
-196.1359
 30
0.0
 10
-315.5988
 20
-196.1359
 30
0.0
 10
-315.5988
 20
-196.9393
 30
0.0
 10
-315.5988
 20
-196.9393
 30
0.0
 10
-315.5988
 20
-196.9393
 30
0.0
 10
-315.5988
 20
-196.9393
 30
0.0
 10
-315.8484
 20
-196.9393
 30
0.0
 10
-315.8484
 20
-196.9393
 30
0.0
  0
SPLINE
  5
C1
330
1F
100
AcDbEntity
  8
Layer 1
 62
   250
100
AcDbSpline
210
0.0
220
0.0
230
1.0
 70
    11
 71
     3
 72
   112
 73
   108
 74
     0
 42
0.000000001
 43
0.0000000001
 40
0.0
 40
0.0
 40
0.0
 40
0.0
 40
0.0357142857142857
 40
0.0357142857142857
 40
0.0357142857142857
 40
0.0357142857142857
 40
0.0714285714285714
 40
0.0714285714285714
 40
0.0714285714285714
 40
0.0714285714285714
 40
0.1071428571428571
 40
0.1071428571428571
 40
0.1071428571428571
 40
0.1071428571428571
 40
0.1428571428571428
 40
0.1428571428571428
 40
0.1428571428571428
 40
0.1428571428571428
 40
0.1785714285714286
 40
0.1785714285714286
 40
0.1785714285714286
 40
0.1785714285714286
 40
0.2142857142857143
 40
0.2142857142857143
 40
0.2142857142857143
 40
0.2142857142857143
 40
0.25
 40
0.25
 40
0.25
 40
0.25
 40
0.2857142857142857
 40
0.2857142857142857
 40
0.2857142857142857
 40
0.2857142857142857
 40
0.3214285714285715
 40
0.3214285714285715
 40
0.3214285714285715
 40
0.3214285714285715
 40
0.3571428571428572
 40
0.3571428571428572
 40
0.3571428571428572
 40
0.3571428571428572
 40
0.3928571428571428
 40
0.3928571428571428
 40
0.3928571428571428
 40
0.3928571428571428
 40
0.4285714285714285
 40
0.4285714285714285
 40
0.4285714285714285
 40
0.4285714285714285
 40
0.4642857142857143
 40
0.4642857142857143
 40
0.4642857142857143
 40
0.4642857142857143
 40
0.5
 40
0.5
 40
0.5
 40
0.5
 40
0.5357142857142857
 40
0.5357142857142857
 40
0.5357142857142857
 40
0.5357142857142857
 40
0.5714285714285714
 40
0.5714285714285714
 40
0.5714285714285714
 40
0.5714285714285714
 40
0.6071428571428571
 40
0.6071428571428571
 40
0.6071428571428571
 40
0.6071428571428571
 40
0.6428571428571429
 40
0.6428571428571429
 40
0.6428571428571429
 40
0.6428571428571429
 40
0.6785714285714286
 40
0.6785714285714286
 40
0.6785714285714286
 40
0.6785714285714286
 40
0.7142857142857143
 40
0.7142857142857143
 40
0.7142857142857143
 40
0.7142857142857143
 40
0.75
 40
0.75
 40
0.75
 40
0.75
 40
0.7857142857142857
 40
0.7857142857142857
 40
0.7857142857142857
 40
0.7857142857142857
 40
0.8214285714285714
 40
0.8214285714285714
 40
0.8214285714285714
 40
0.8214285714285714
 40
0.8571428571428571
 40
0.8571428571428571
 40
0.8571428571428571
 40
0.8571428571428571
 40
0.8928571428571429
 40
0.8928571428571429
 40
0.8928571428571429
 40
0.8928571428571429
 40
0.9285714285714286
 40
0.9285714285714286
 40
0.9285714285714286
 40
0.9285714285714286
 40
1.0
 40
1.0
 40
1.0
 40
1.0
 10
-313.3102
 20
-196.755
 30
0.0
 10
-313.4028
 20
-196.8339
 30
0.0
 10
-313.4921
 20
-196.8892
 30
0.0
 10
-313.5776
 20
-196.9218
 30
0.0
 10
-313.5776
 20
-196.9218
 30
0.0
 10
-313.6632
 20
-196.9544
 30
0.0
 10
-313.7548
 20
-196.9705
 30
0.0
 10
-313.8531
 20
-196.9705
 30
0.0
 10
-313.8531
 20
-196.9705
 30
0.0
 10
-314.0148
 20
-196.9705
 30
0.0
 10
-314.139
 20
-196.9313
 30
0.0
 10
-314.226
 20
-196.8523
 30
0.0
 10
-314.226
 20
-196.8523
 30
0.0
 10
-314.3129
 20
-196.7739
 30
0.0
 10
-314.3564
 20
-196.6732
 30
0.0
 10
-314.3564
 20
-196.5509
 30
0.0
 10
-314.3564
 20
-196.5509
 30
0.0
 10
-314.3564
 20
-196.479
 30
0.0
 10
-314.3399
 20
-196.4133
 30
0.0
 10
-314.3073
 20
-196.3538
 30
0.0
 10
-314.3073
 20
-196.3538
 30
0.0
 10
-314.2742
 20
-196.2942
 30
0.0
 10
-314.2312
 20
-196.247
 30
0.0
 10
-314.1783
 20
-196.2111
 30
0.0
 10
-314.1783
 20
-196.2111
 30
0.0
 10
-314.1249
 20
-196.1752
 30
0.0
 10
-314.0653
 20
-196.1478
 30
0.0
 10
-313.9987
 20
-196.1293
 30
0.0
 10
-313.9987
 20
-196.1293
 30
0.0
 10
-313.9495
 20
-196.1166
 30
0.0
 10
-313.8754
 20
-196.1043
 30
0.0
 10
-313.7766
 20
-196.092
 30
0.0
 10
-313.7766
 20
-196.092
 30
0.0
 10
-313.5753
 20
-196.0684
 30
0.0
 10
-313.4264
 20
-196.0395
 30
0.0
 10
-313.3314
 20
-196.0065
 30
0.0
 10
-313.3314
 20
-196.0065
 30
0.0
 10
-313.3305
 20
-195.9724
 30
0.0
 10
-313.33
 20
-195.9507
 30
0.0
 10
-313.33
 20
-195.9417
 30
0.0
 10
-313.33
 20
-195.9417
 30
0.0
 10
-313.33
 20
-195.8406
 30
0.0
 10
-313.3536
 20
-195.7692
 30
0.0
 10
-313.4009
 20
-195.7276
 30
0.0
 10
-313.4009
 20
-195.7276
 30
0.0
 10
-313.4647
 20
-195.6714
 30
0.0
 10
-313.5597
 20
-195.6435
 30
0.0
 10
-313.6854
 20
-195.6435
 30
0.0
 10
-313.6854
 20
-195.6435
 30
0.0
 10
-313.8031
 20
-195.6435
 30
0.0
 10
-313.89
 20
-195.6643
 30
0.0
 10
-313.9458
 20
-195.7054
 30
0.0
 10
-313.9458
 20
-195.7054
 30
0.0
 10
-314.002
 20
-195.7465
 30
0.0
 10
-314.0431
 20
-195.8193
 30
0.0
 10
-314.0701
 20
-195.9242
 30
0.0
 10
-314.0701
 20
-195.9242
 30
0.0
 10
-314.0701
 20
-195.9242
 30
0.0
 10
-314.3139
 20
-195.8902
 30
0.0
 10
-314.3139
 20
-195.8902
 30
0.0
 10
-314.3139
 20
-195.8902
 30
0.0
 10
-314.2917
 20
-195.7858
 30
0.0
 10
-314.2553
 20
-195.7012
 30
0.0
 10
-314.2043
 20
-195.6369
 30
0.0
 10
-314.2043
 20
-195.6369
 30
0.0
 10
-314.1532
 20
-195.5726
 30
0.0
 10
-314.0795
 20
-195.5235
 30
0.0
 10
-313.9831
 20
-195.4885
 30
0.0
 10
-313.9831
 20
-195.4885
 30
0.0
 10
-313.8872
 20
-195.454
 30
0.0
 10
-313.7752
 20
-195.4365
 30
0.0
 10
-313.6485
 20
-195.4365
 30
0.0
 10
-313.6485
 20
-195.4365
 30
0.0
 10
-313.5228
 20
-195.4365
 30
0.0
 10
-313.4203
 20
-195.4512
 30
0.0
 10
-313.3414
 20
-195.481
 30
0.0
 10
-313.3414
 20
-195.481
 30
0.0
 10
-313.2629
 20
-195.5107
 30
0.0
 10
-313.2048
 20
-195.5476
 30
0.0
 10
-313.1679
 20
-195.5925
 30
0.0
 10
-313.1679
 20
-195.5925
 30
0.0
 10
-313.1311
 20
-195.6374
 30
0.0
 10
-313.1051
 20
-195.6941
 30
0.0
 10
-313.0899
 20
-195.7626
 30
0.0
 10
-313.0899
 20
-195.7626
 30
0.0
 10
-313.0819
 20
-195.8051
 30
0.0
 10
-313.0777
 20
-195.8817
 30
0.0
 10
-313.0777
 20
-195.9918
 30
0.0
 10
-313.0777
 20
-195.9918
 30
0.0
 10
-313.0777
 20
-195.9918
 30
0.0
 10
-313.0777
 20
-196.3226
 30
0.0
 10
-313.0777
 20
-196.3226
 30
0.0
 10
-313.0777
 20
-196.3226
 30
0.0
 10
-313.0777
 20
-196.5537
 30
0.0
 10
-313.0725
 20
-196.6997
 30
0.0
 10
-313.0621
 20
-196.7616
 30
0.0
 10
-313.0621
 20
-196.7616
 30
0.0
 10
-313.0521
 20
-196.8235
 30
0.0
 10
-313.0313
 20
-196.8826
 30
0.0
 10
-313.0011
 20
-196.9393
 30
0.0
 10
-313.0011
 20
-196.9393
 30
0.0
 10
-313.0011
 20
-196.9393
 30
0.0
 10
-313.262
 20
-196.9393
 30
0.0
 10
-313.262
 20
-196.9393
 30
0.0
 10
-313.262
 20
-196.9393
 30
0.0
 10
-313.287
 20
-196.8868
 30
0.0
 10
-313.3031
 20
-196.8254
 30
0.0
 10
-313.3102
 20
-196.755
 30
0.0
  0
SPLINE
  5
C2
330
1F
100
AcDbEntity
  8
Layer 1
 62
   250
100
AcDbSpline
210
0.0
220
0.0
230
1.0
 70
    11
 71
     3
 72
    44
 73
    40
 74
     0
 42
0.000000001
 43
0.0000000001
 40
0.0
 40
0.0
 40
0.0
 40
0.0
 40
0.0909090909090909
 40
0.0909090909090909
 40
0.0909090909090909
 40
0.0909090909090909
 40
0.1818181818181818
 40
0.1818181818181818
 40
0.1818181818181818
 40
0.1818181818181818
 40
0.2727272727272727
 40
0.2727272727272727
 40
0.2727272727272727
 40
0.2727272727272727
 40
0.3636363636363636
 40
0.3636363636363636
 40
0.3636363636363636
 40
0.3636363636363636
 40
0.4545454545454545
 40
0.4545454545454545
 40
0.4545454545454545
 40
0.4545454545454545
 40
0.5454545454545454
 40
0.5454545454545454
 40
0.5454545454545454
 40
0.5454545454545454
 40
0.6363636363636364
 40
0.6363636363636364
 40
0.6363636363636364
 40
0.6363636363636364
 40
0.7272727272727273
 40
0.7272727272727273
 40
0.7272727272727273
 40
0.7272727272727273
 40
0.8181818181818182
 40
0.8181818181818182
 40
0.8181818181818182
 40
0.8181818181818182
 40
1.0
 40
1.0
 40
1.0
 40
1.0
 10
-313.33
 20
-196.2021
 30
0.0
 10
-313.4207
 20
-196.239
 30
0.0
 10
-313.5568
 20
-196.2701
 30
0.0
 10
-313.7383
 20
-196.2957
 30
0.0
 10
-313.7383
 20
-196.2957
 30
0.0
 10
-313.8413
 20
-196.3103
 30
0.0
 10
-313.9141
 20
-196.3269
 30
0.0
 10
-313.9566
 20
-196.3453
 30
0.0
 10
-313.9566
 20
-196.3453
 30
0.0
 10
-313.9992
 20
-196.3637
 30
0.0
 10
-314.0318
 20
-196.3907
 30
0.0
 10
-314.0549
 20
-196.4256
 30
0.0
 10
-314.0549
 20
-196.4256
 30
0.0
 10
-314.0781
 20
-196.4611
 30
0.0
 10
-314.0899
 20
-196.5003
 30
0.0
 10
-314.0899
 20
-196.5438
 30
0.0
 10
-314.0899
 20
-196.5438
 30
0.0
 10
-314.0899
 20
-196.6094
 30
0.0
 10
-314.0649
 20
-196.6647
 30
0.0
 10
-314.0143
 20
-196.7087
 30
0.0
 10
-314.0143
 20
-196.7087
 30
0.0
 10
-313.9637
 20
-196.7526
 30
0.0
 10
-313.89
 20
-196.7748
 30
0.0
 10
-313.7931
 20
-196.7748
 30
0.0
 10
-313.7931
 20
-196.7748
 30
0.0
 10
-313.6972
 20
-196.7748
 30
0.0
 10
-313.6117
 20
-196.7541
 30
0.0
 10
-313.5365
 20
-196.712
 30
0.0
 10
-313.5365
 20
-196.712
 30
0.0
 10
-313.4619
 20
-196.6704
 30
0.0
 10
-313.4066
 20
-196.6132
 30
0.0
 10
-313.3716
 20
-196.5409
 30
0.0
 10
-313.3716
 20
-196.5409
 30
0.0
 10
-313.3447
 20
-196.4847
 30
0.0
 10
-313.3314
 20
-196.402
 30
0.0
 10
-313.3314
 20
-196.2928
 30
0.0
 10
-313.3314
 20
-196.2928
 30
0.0
 10
-313.3314
 20
-196.2928
 30
0.0
 10
-313.33
 20
-196.2021
 30
0.0
 10
-313.33
 20
-196.2021
 30
0.0
  0
SPLINE
  5
C3
330
1F
100
AcDbEntity
  8
Layer 1
 62
   250
100
AcDbSpline
210
0.0
220
0.0
230
1.0
 70
    11
 71
     3
 72
   136
 73
   132
 74
     0
 42
0.000000001
 43
0.0000000001
 40
0.0
 40
0.0
 40
0.0
 40
0.0
 40
0.0294117647058824
 40
0.0294117647058824
 40
0.0294117647058824
 40
0.0294117647058824
 40
0.0588235294117647
 40
0.0588235294117647
 40
0.0588235294117647
 40
0.0588235294117647
 40
0.0882352941176471
 40
0.0882352941176471
 40
0.0882352941176471
 40
0.0882352941176471
 40
0.1176470588235294
 40
0.1176470588235294
 40
0.1176470588235294
 40
0.1176470588235294
 40
0.1470588235294118
 40
0.1470588235294118
 40
0.1470588235294118
 40
0.1470588235294118
 40
0.1764705882352941
 40
0.1764705882352941
 40
0.1764705882352941
 40
0.1764705882352941
 40
0.2058823529411765
 40
0.2058823529411765
 40
0.2058823529411765
 40
0.2058823529411765
 40
0.2352941176470588
 40
0.2352941176470588
 40
0.2352941176470588
 40
0.2352941176470588
 40
0.2647058823529412
 40
0.2647058823529412
 40
0.2647058823529412
 40
0.2647058823529412
 40
0.2941176470588235
 40
0.2941176470588235
 40
0.2941176470588235
 40
0.2941176470588235
 40
0.3235294117647059
 40
0.3235294117647059
 40
0.3235294117647059
 40
0.3235294117647059
 40
0.3529411764705883
 40
0.3529411764705883
 40
0.3529411764705883
 40
0.3529411764705883
 40
0.3823529411764706
 40
0.3823529411764706
 40
0.3823529411764706
 40
0.3823529411764706
 40
0.4117647058823529
 40
0.4117647058823529
 40
0.4117647058823529
 40
0.4117647058823529
 40
0.4411764705882353
 40
0.4411764705882353
 40
0.4411764705882353
 40
0.4411764705882353
 40
0.4705882352941176
 40
0.4705882352941176
 40
0.4705882352941176
 40
0.4705882352941176
 40
0.5
 40
0.5
 40
0.5
 40
0.5
 40
0.5294117647058824
 40
0.5294117647058824
 40
0.5294117647058824
 40
0.5294117647058824
 40
0.5588235294117647
 40
0.5588235294117647
 40
0.5588235294117647
 40
0.5588235294117647
 40
0.5882352941176471
 40
0.5882352941176471
 40
0.5882352941176471
 40
0.5882352941176471
 40
0.6176470588235294
 40
0.6176470588235294
 40
0.6176470588235294
 40
0.6176470588235294
 40
0.6470588235294118
 40
0.6470588235294118
 40
0.6470588235294118
 40
0.6470588235294118
 40
0.6764705882352942
 40
0.6764705882352942
 40
0.6764705882352942
 40
0.6764705882352942
 40
0.7058823529411765
 40
0.7058823529411765
 40
0.7058823529411765
 40
0.7058823529411765
 40
0.7352941176470589
 40
0.7352941176470589
 40
0.7352941176470589
 40
0.7352941176470589
 40
0.7647058823529411
 40
0.7647058823529411
 40
0.7647058823529411
 40
0.7647058823529411
 40
0.7941176470588235
 40
0.7941176470588235
 40
0.7941176470588235
 40
0.7941176470588235
 40
0.8235294117647058
 40
0.8235294117647058
 40
0.8235294117647058
 40
0.8235294117647058
 40
0.8529411764705882
 40
0.8529411764705882
 40
0.8529411764705882
 40
0.8529411764705882
 40
0.8823529411764706
 40
0.8823529411764706
 40
0.8823529411764706
 40
0.8823529411764706
 40
0.9117647058823529
 40
0.9117647058823529
 40
0.9117647058823529
 40
0.9117647058823529
 40
0.9411764705882353
 40
0.9411764705882353
 40
0.9411764705882353
 40
0.9411764705882353
 40
1.0
 40
1.0
 40
1.0
 40
1.0
 10
-312.7936
 20
-196.4998
 30
0.0
 10
-312.7936
 20
-196.4998
 30
0.0
 10
-312.5469
 20
-196.4601
 30
0.0
 10
-312.5469
 20
-196.4601
 30
0.0
 10
-312.5469
 20
-196.4601
 30
0.0
 10
-312.5332
 20
-196.5589
 30
0.0
 10
-312.4945
 20
-196.6345
 30
0.0
 10
-312.4311
 20
-196.6874
 30
0.0
 10
-312.4311
 20
-196.6874
 30
0.0
 10
-312.3678
 20
-196.7399
 30
0.0
 10
-312.279
 20
-196.7663
 30
0.0
 10
-312.1656
 20
-196.7663
 30
0.0
 10
-312.1656
 20
-196.7663
 30
0.0
 10
-312.0507
 20
-196.7663
 30
0.0
 10
-311.9657
 20
-196.7432
 30
0.0
 10
-311.9099
 20
-196.6964
 30
0.0
 10
-311.9099
 20
-196.6964
 30
0.0
 10
-311.8546
 20
-196.6501
 30
0.0
 10
-311.8267
 20
-196.5953
 30
0.0
 10
-311.8267
 20
-196.5324
 30
0.0
 10
-311.8267
 20
-196.5324
 30
0.0
 10
-311.8267
 20
-196.4762
 30
0.0
 10
-311.8518
 20
-196.4318
 30
0.0
 10
-311.9014
 20
-196.3996
 30
0.0
 10
-311.9014
 20
-196.3996
 30
0.0
 10
-311.9364
 20
-196.3774
 30
0.0
 10
-312.0214
 20
-196.3495
 30
0.0
 10
-312.1566
 20
-196.315
 30
0.0
 10
-312.1566
 20
-196.315
 30
0.0
 10
-312.339
 20
-196.2692
 30
0.0
 10
-312.4652
 20
-196.2295
 30
0.0
 10
-312.5361
 20
-196.196
 30
0.0
 10
-312.5361
 20
-196.196
 30
0.0
 10
-312.6065
 20
-196.1619
 30
0.0
 10
-312.6599
 20
-196.1156
 30
0.0
 10
-312.6963
 20
-196.0561
 30
0.0
 10
-312.6963
 20
-196.0561
 30
0.0
 10
-312.7326
 20
-195.997
 30
0.0
 10
-312.7511
 20
-195.9313
 30
0.0
 10
-312.7511
 20
-195.8595
 30
0.0
 10
-312.7511
 20
-195.8595
 30
0.0
 10
-312.7511
 20
-195.7938
 30
0.0
 10
-312.7359
 20
-195.7333
 30
0.0
 10
-312.7062
 20
-195.6775
 30
0.0
 10
-312.7062
 20
-195.6775
 30
0.0
 10
-312.6759
 20
-195.6218
 30
0.0
 10
-312.6353
 20
-195.5755
 30
0.0
 10
-312.5838
 20
-195.5386
 30
0.0
 10
-312.5838
 20
-195.5386
 30
0.0
 10
-312.545
 20
-195.5103
 30
0.0
 10
-312.4921
 20
-195.4862
 30
0.0
 10
-312.4255
 20
-195.4663
 30
0.0
 10
-312.4255
 20
-195.4663
 30
0.0
 10
-312.3584
 20
-195.4465
 30
0.0
 10
-312.287
 20
-195.4365
 30
0.0
 10
-312.2105
 20
-195.4365
 30
0.0
 10
-312.2105
 20
-195.4365
 30
0.0
 10
-312.0951
 20
-195.4365
 30
0.0
 10
-311.994
 20
-195.4531
 30
0.0
 10
-311.9071
 20
-195.4866
 30
0.0
 10
-311.9071
 20
-195.4866
 30
0.0
 10
-311.8196
 20
-195.5197
 30
0.0
 10
-311.7554
 20
-195.5651
 30
0.0
 10
-311.7138
 20
-195.6218
 30
0.0
 10
-311.7138
 20
-195.6218
 30
0.0
 10
-311.6727
 20
-195.679
 30
0.0
 10
-311.6438
 20
-195.755
 30
0.0
 10
-311.6283
 20
-195.8505
 30
0.0
 10
-311.6283
 20
-195.8505
 30
0.0
 10
-311.6283
 20
-195.8505
 30
0.0
 10
-311.8721
 20
-195.8845
 30
0.0
 10
-311.8721
 20
-195.8845
 30
0.0
 10
-311.8721
 20
-195.8845
 30
0.0
 10
-311.883
 20
-195.808
 30
0.0
 10
-311.9151
 20
-195.748
 30
0.0
 10
-311.968
 20
-195.705
 30
0.0
 10
-311.968
 20
-195.705
 30
0.0
 10
-312.021
 20
-195.662
 30
0.0
 10
-312.0956
 20
-195.6407
 30
0.0
 10
-312.1925
 20
-195.6407
 30
0.0
 10
-312.1925
 20
-195.6407
 30
0.0
 10
-312.3064
 20
-195.6407
 30
0.0
 10
-312.3881
 20
-195.6596
 30
0.0
 10
-312.4368
 20
-195.6974
 30
0.0
 10
-312.4368
 20
-195.6974
 30
0.0
 10
-312.4855
 20
-195.7352
 30
0.0
 10
-312.5101
 20
-195.7796
 30
0.0
 10
-312.5101
 20
-195.8302
 30
0.0
 10
-312.5101
 20
-195.8302
 30
0.0
 10
-312.5101
 20
-195.8623
 30
0.0
 10
-312.5001
 20
-195.8916
 30
0.0
 10
-312.4798
 20
-195.9176
 30
0.0
 10
-312.4798
 20
-195.9176
 30
0.0
 10
-312.4595
 20
-195.9441
 30
0.0
 10
-312.4278
 20
-195.9663
 30
0.0
 10
-312.3844
 20
-195.9838
 30
0.0
 10
-312.3844
 20
-195.9838
 30
0.0
 10
-312.3593
 20
-195.9932
 30
0.0
 10
-312.2865
 20
-196.0145
 30
0.0
 10
-312.1646
 20
-196.0476
 30
0.0
 10
-312.1646
 20
-196.0476
 30
0.0
 10
-311.9888
 20
-196.0944
 30
0.0
 10
-311.866
 20
-196.1331
 30
0.0
 10
-311.796
 20
-196.1629
 30
0.0
 10
-311.796
 20
-196.1629
 30
0.0
 10
-311.7261
 20
-196.1926
 30
0.0
 10
-311.6713
 20
-196.2366
 30
0.0
 10
-311.6316
 20
-196.2933
 30
0.0
 10
-311.6316
 20
-196.2933
 30
0.0
 10
-311.5914
 20
-196.3505
 30
0.0
 10
-311.5715
 20
-196.4214
 30
0.0
 10
-311.5715
 20
-196.5064
 30
0.0
 10
-311.5715
 20
-196.5064
 30
0.0
 10
-311.5715
 20
-196.5891
 30
0.0
 10
-311.5956
 20
-196.6671
 30
0.0
 10
-311.6443
 20
-196.7403
 30
0.0
 10
-311.6443
 20
-196.7403
 30
0.0
 10
-311.693
 20
-196.8136
 30
0.0
 10
-311.7629
 20
-196.8703
 30
0.0
 10
-311.8541
 20
-196.9105
 30
0.0
 10
-311.8541
 20
-196.9105
 30
0.0
 10
-311.9458
 20
-196.9506
 30
0.0
 10
-312.0493
 20
-196.9705
 30
0.0
 10
-312.1646
 20
-196.9705
 30
0.0
 10
-312.1646
 20
-196.9705
 30
0.0
 10
-312.3555
 20
-196.9705
 30
0.0
 10
-312.5016
 20
-196.9308
 30
0.0
 10
-312.6017
 20
-196.8519
 30
0.0
 10
-312.6017
 20
-196.8519
 30
0.0
 10
-312.7019
 20
-196.7725
 30
0.0
 10
-312.7657
 20
-196.6553
 30
0.0
 10
-312.7936
 20
-196.4998
 30
0.0
  0
SPLINE
  5
C4
330
1F
100
AcDbEntity
  8
Layer 1
 62
   250
100
AcDbSpline
210
0.0
220
0.0
230
1.0
 70
    11
 71
     3
 72
   136
 73
   132
 74
     0
 42
0.000000001
 43
0.0000000001
 40
0.0
 40
0.0
 40
0.0
 40
0.0
 40
0.0294117647058824
 40
0.0294117647058824
 40
0.0294117647058824
 40
0.0294117647058824
 40
0.0588235294117647
 40
0.0588235294117647
 40
0.0588235294117647
 40
0.0588235294117647
 40
0.0882352941176471
 40
0.0882352941176471
 40
0.0882352941176471
 40
0.0882352941176471
 40
0.1176470588235294
 40
0.1176470588235294
 40
0.1176470588235294
 40
0.1176470588235294
 40
0.1470588235294118
 40
0.1470588235294118
 40
0.1470588235294118
 40
0.1470588235294118
 40
0.1764705882352941
 40
0.1764705882352941
 40
0.1764705882352941
 40
0.1764705882352941
 40
0.2058823529411765
 40
0.2058823529411765
 40
0.2058823529411765
 40
0.2058823529411765
 40
0.2352941176470588
 40
0.2352941176470588
 40
0.2352941176470588
 40
0.2352941176470588
 40
0.2647058823529412
 40
0.2647058823529412
 40
0.2647058823529412
 40
0.2647058823529412
 40
0.2941176470588235
 40
0.2941176470588235
 40
0.2941176470588235
 40
0.2941176470588235
 40
0.3235294117647059
 40
0.3235294117647059
 40
0.3235294117647059
 40
0.3235294117647059
 40
0.3529411764705883
 40
0.3529411764705883
 40
0.3529411764705883
 40
0.3529411764705883
 40
0.3823529411764706
 40
0.3823529411764706
 40
0.3823529411764706
 40
0.3823529411764706
 40
0.4117647058823529
 40
0.4117647058823529
 40
0.4117647058823529
 40
0.4117647058823529
 40
0.4411764705882353
 40
0.4411764705882353
 40
0.4411764705882353
 40
0.4411764705882353
 40
0.4705882352941176
 40
0.4705882352941176
 40
0.4705882352941176
 40
0.4705882352941176
 40
0.5
 40
0.5
 40
0.5
 40
0.5
 40
0.5294117647058824
 40
0.5294117647058824
 40
0.5294117647058824
 40
0.5294117647058824
 40
0.5588235294117647
 40
0.5588235294117647
 40
0.5588235294117647
 40
0.5588235294117647
 40
0.5882352941176471
 40
0.5882352941176471
 40
0.5882352941176471
 40
0.5882352941176471
 40
0.6176470588235294
 40
0.6176470588235294
 40
0.6176470588235294
 40
0.6176470588235294
 40
0.6470588235294118
 40
0.6470588235294118
 40
0.6470588235294118
 40
0.6470588235294118
 40
0.6764705882352942
 40
0.6764705882352942
 40
0.6764705882352942
 40
0.6764705882352942
 40
0.7058823529411765
 40
0.7058823529411765
 40
0.7058823529411765
 40
0.7058823529411765
 40
0.7352941176470589
 40
0.7352941176470589
 40
0.7352941176470589
 40
0.7352941176470589
 40
0.7647058823529411
 40
0.7647058823529411
 40
0.7647058823529411
 40
0.7647058823529411
 40
0.7941176470588235
 40
0.7941176470588235
 40
0.7941176470588235
 40
0.7941176470588235
 40
0.8235294117647058
 40
0.8235294117647058
 40
0.8235294117647058
 40
0.8235294117647058
 40
0.8529411764705882
 40
0.8529411764705882
 40
0.8529411764705882
 40
0.8529411764705882
 40
0.8823529411764706
 40
0.8823529411764706
 40
0.8823529411764706
 40
0.8823529411764706
 40
0.9117647058823529
 40
0.9117647058823529
 40
0.9117647058823529
 40
0.9117647058823529
 40
0.9411764705882353
 40
0.9411764705882353
 40
0.9411764705882353
 40
0.9411764705882353
 40
1.0
 40
1.0
 40
1.0
 40
1.0
 10
-311.3759
 20
-196.4998
 30
0.0
 10
-311.3759
 20
-196.4998
 30
0.0
 10
-311.1292
 20
-196.4601
 30
0.0
 10
-311.1292
 20
-196.4601
 30
0.0
 10
-311.1292
 20
-196.4601
 30
0.0
 10
-311.1155
 20
-196.5589
 30
0.0
 10
-311.0768
 20
-196.6345
 30
0.0
 10
-311.0134
 20
-196.6874
 30
0.0
 10
-311.0134
 20
-196.6874
 30
0.0
 10
-310.9501
 20
-196.7399
 30
0.0
 10
-310.8613
 20
-196.7663
 30
0.0
 10
-310.7479
 20
-196.7663
 30
0.0
 10
-310.7479
 20
-196.7663
 30
0.0
 10
-310.633
 20
-196.7663
 30
0.0
 10
-310.548
 20
-196.7432
 30
0.0
 10
-310.4922
 20
-196.6964
 30
0.0
 10
-310.4922
 20
-196.6964
 30
0.0
 10
-310.4369
 20
-196.6501
 30
0.0
 10
-310.409
 20
-196.5953
 30
0.0
 10
-310.409
 20
-196.5324
 30
0.0
 10
-310.409
 20
-196.5324
 30
0.0
 10
-310.409
 20
-196.4762
 30
0.0
 10
-310.4341
 20
-196.4318
 30
0.0
 10
-310.4837
 20
-196.3996
 30
0.0
 10
-310.4837
 20
-196.3996
 30
0.0
 10
-310.5187
 20
-196.3774
 30
0.0
 10
-310.6037
 20
-196.3495
 30
0.0
 10
-310.7389
 20
-196.315
 30
0.0
 10
-310.7389
 20
-196.315
 30
0.0
 10
-310.9213
 20
-196.2692
 30
0.0
 10
-311.0475
 20
-196.2295
 30
0.0
 10
-311.1184
 20
-196.196
 30
0.0
 10
-311.1184
 20
-196.196
 30
0.0
 10
-311.1888
 20
-196.1619
 30
0.0
 10
-311.2422
 20
-196.1156
 30
0.0
 10
-311.2786
 20
-196.0561
 30
0.0
 10
-311.2786
 20
-196.0561
 30
0.0
 10
-311.3149
 20
-195.997
 30
0.0
 10
-311.3334
 20
-195.9313
 30
0.0
 10
-311.3334
 20
-195.8595
 30
0.0
 10
-311.3334
 20
-195.8595
 30
0.0
 10
-311.3334
 20
-195.7938
 30
0.0
 10
-311.3182
 20
-195.7333
 30
0.0
 10
-311.2885
 20
-195.6775
 30
0.0
 10
-311.2885
 20
-195.6775
 30
0.0
 10
-311.2582
 20
-195.6218
 30
0.0
 10
-311.2176
 20
-195.5755
 30
0.0
 10
-311.1661
 20
-195.5386
 30
0.0
 10
-311.1661
 20
-195.5386
 30
0.0
 10
-311.1273
 20
-195.5103
 30
0.0
 10
-311.0744
 20
-195.4862
 30
0.0
 10
-311.0078
 20
-195.4663
 30
0.0
 10
-311.0078
 20
-195.4663
 30
0.0
 10
-310.9407
 20
-195.4465
 30
0.0
 10
-310.8693
 20
-195.4365
 30
0.0
 10
-310.7928
 20
-195.4365
 30
0.0
 10
-310.7928
 20
-195.4365
 30
0.0
 10
-310.6774
 20
-195.4365
 30
0.0
 10
-310.5763
 20
-195.4531
 30
0.0
 10
-310.4894
 20
-195.4866
 30
0.0
 10
-310.4894
 20
-195.4866
 30
0.0
 10
-310.4019
 20
-195.5197
 30
0.0
 10
-310.3377
 20
-195.5651
 30
0.0
 10
-310.2961
 20
-195.6218
 30
0.0
 10
-310.2961
 20
-195.6218
 30
0.0
 10
-310.255
 20
-195.679
 30
0.0
 10
-310.2261
 20
-195.755
 30
0.0
 10
-310.2106
 20
-195.8505
 30
0.0
 10
-310.2106
 20
-195.8505
 30
0.0
 10
-310.2106
 20
-195.8505
 30
0.0
 10
-310.4544
 20
-195.8845
 30
0.0
 10
-310.4544
 20
-195.8845
 30
0.0
 10
-310.4544
 20
-195.8845
 30
0.0
 10
-310.4653
 20
-195.808
 30
0.0
 10
-310.4974
 20
-195.748
 30
0.0
 10
-310.5503
 20
-195.705
 30
0.0
 10
-310.5503
 20
-195.705
 30
0.0
 10
-310.6033
 20
-195.662
 30
0.0
 10
-310.6779
 20
-195.6407
 30
0.0
 10
-310.7748
 20
-195.6407
 30
0.0
 10
-310.7748
 20
-195.6407
 30
0.0
 10
-310.8887
 20
-195.6407
 30
0.0
 10
-310.9704
 20
-195.6596
 30
0.0
 10
-311.0191
 20
-195.6974
 30
0.0
 10
-311.0191
 20
-195.6974
 30
0.0
 10
-311.0678
 20
-195.7352
 30
0.0
 10
-311.0924
 20
-195.7796
 30
0.0
 10
-311.0924
 20
-195.8302
 30
0.0
 10
-311.0924
 20
-195.8302
 30
0.0
 10
-311.0924
 20
-195.8623
 30
0.0
 10
-311.0824
 20
-195.8916
 30
0.0
 10
-311.0621
 20
-195.9176
 30
0.0
 10
-311.0621
 20
-195.9176
 30
0.0
 10
-311.0418
 20
-195.9441
 30
0.0
 10
-311.0101
 20
-195.9663
 30
0.0
 10
-310.9667
 20
-195.9838
 30
0.0
 10
-310.9667
 20
-195.9838
 30
0.0
 10
-310.9416
 20
-195.9932
 30
0.0
 10
-310.8688
 20
-196.0145
 30
0.0
 10
-310.7469
 20
-196.0476
 30
0.0
 10
-310.7469
 20
-196.0476
 30
0.0
 10
-310.5711
 20
-196.0944
 30
0.0
 10
-310.4483
 20
-196.1331
 30
0.0
 10
-310.3783
 20
-196.1629
 30
0.0
 10
-310.3783
 20
-196.1629
 30
0.0
 10
-310.3084
 20
-196.1926
 30
0.0
 10
-310.2536
 20
-196.2366
 30
0.0
 10
-310.2139
 20
-196.2933
 30
0.0
 10
-310.2139
 20
-196.2933
 30
0.0
 10
-310.1737
 20
-196.3505
 30
0.0
 10
-310.1538
 20
-196.4214
 30
0.0
 10
-310.1538
 20
-196.5064
 30
0.0
 10
-310.1538
 20
-196.5064
 30
0.0
 10
-310.1538
 20
-196.5891
 30
0.0
 10
-310.1779
 20
-196.6671
 30
0.0
 10
-310.2266
 20
-196.7403
 30
0.0
 10
-310.2266
 20
-196.7403
 30
0.0
 10
-310.2753
 20
-196.8136
 30
0.0
 10
-310.3452
 20
-196.8703
 30
0.0
 10
-310.4364
 20
-196.9105
 30
0.0
 10
-310.4364
 20
-196.9105
 30
0.0
 10
-310.5281
 20
-196.9506
 30
0.0
 10
-310.6316
 20
-196.9705
 30
0.0
 10
-310.7469
 20
-196.9705
 30
0.0
 10
-310.7469
 20
-196.9705
 30
0.0
 10
-310.9378
 20
-196.9705
 30
0.0
 10
-311.0839
 20
-196.9308
 30
0.0
 10
-311.184
 20
-196.8519
 30
0.0
 10
-311.184
 20
-196.8519
 30
0.0
 10
-311.2842
 20
-196.7725
 30
0.0
 10
-311.348
 20
-196.6553
 30
0.0
 10
-311.3759
 20
-196.4998
 30
0.0
  0
SPLINE
  5
C5
330
1F
100
AcDbEntity
  8
Layer 1
 62
   250
100
AcDbSpline
210
0.0
220
0.0
230
1.0
 70
    11
 71
     3
 72
    64
 73
    60
 74
     0
 42
0.000000001
 43
0.0000000001
 40
0.0
 40
0.0
 40
0.0
 40
0.0
 40
0.0625
 40
0.0625
 40
0.0625
 40
0.0625
 40
0.125
 40
0.125
 40
0.125
 40
0.125
 40
0.1875
 40
0.1875
 40
0.1875
 40
0.1875
 40
0.25
 40
0.25
 40
0.25
 40
0.25
 40
0.3125
 40
0.3125
 40
0.3125
 40
0.3125
 40
0.375
 40
0.375
 40
0.375
 40
0.375
 40
0.4375
 40
0.4375
 40
0.4375
 40
0.4375
 40
0.5
 40
0.5
 40
0.5
 40
0.5
 40
0.5625
 40
0.5625
 40
0.5625
 40
0.5625
 40
0.625
 40
0.625
 40
0.625
 40
0.625
 40
0.6875
 40
0.6875
 40
0.6875
 40
0.6875
 40
0.75
 40
0.75
 40
0.75
 40
0.75
 40
0.8125
 40
0.8125
 40
0.8125
 40
0.8125
 40
0.875
 40
0.875
 40
0.875
 40
0.875
 40
1.0
 40
1.0
 40
1.0
 40
1.0
 10
-308.8552
 20
-196.463
 30
0.0
 10
-308.8552
 20
-196.463
 30
0.0
 10
-308.5972
 20
-196.497
 30
0.0
 10
-308.5972
 20
-196.497
 30
0.0
 10
-308.5972
 20
-196.497
 30
0.0
 10
-308.6374
 20
-196.6468
 30
0.0
 10
-308.7125
 20
-196.7635
 30
0.0
 10
-308.8222
 20
-196.8462
 30
0.0
 10
-308.8222
 20
-196.8462
 30
0.0
 10
-308.9318
 20
-196.9289
 30
0.0
 10
-309.0717
 20
-196.9705
 30
0.0
 10
-309.2423
 20
-196.9705
 30
0.0
 10
-309.2423
 20
-196.9705
 30
0.0
 10
-309.4568
 20
-196.9705
 30
0.0
 10
-309.6269
 20
-196.9043
 30
0.0
 10
-309.7526
 20
-196.772
 30
0.0
 10
-309.7526
 20
-196.772
 30
0.0
 10
-309.8783
 20
-196.6402
 30
0.0
 10
-309.9412
 20
-196.4544
 30
0.0
 10
-309.9412
 20
-196.2158
 30
0.0
 10
-309.9412
 20
-196.2158
 30
0.0
 10
-309.9412
 20
-195.9691
 30
0.0
 10
-309.8779
 20
-195.7773
 30
0.0
 10
-309.7507
 20
-195.6412
 30
0.0
 10
-309.7507
 20
-195.6412
 30
0.0
 10
-309.6236
 20
-195.5046
 30
0.0
 10
-309.4587
 20
-195.4365
 30
0.0
 10
-309.256
 20
-195.4365
 30
0.0
 10
-309.256
 20
-195.4365
 30
0.0
 10
-309.0599
 20
-195.4365
 30
0.0
 10
-308.8997
 20
-195.5032
 30
0.0
 10
-308.7754
 20
-195.6369
 30
0.0
 10
-308.7754
 20
-195.6369
 30
0.0
 10
-308.6511
 20
-195.7706
 30
0.0
 10
-308.5887
 20
-195.9587
 30
0.0
 10
-308.5887
 20
-196.2012
 30
0.0
 10
-308.5887
 20
-196.2012
 30
0.0
 10
-308.5887
 20
-196.2158
 30
0.0
 10
-308.5892
 20
-196.238
 30
0.0
 10
-308.5901
 20
-196.2673
 30
0.0
 10
-308.5901
 20
-196.2673
 30
0.0
 10
-308.5901
 20
-196.2673
 30
0.0
 10
-309.686
 20
-196.2673
 30
0.0
 10
-309.686
 20
-196.2673
 30
0.0
 10
-309.686
 20
-196.2673
 30
0.0
 10
-309.6766
 20
-196.4285
 30
0.0
 10
-309.6312
 20
-196.5523
 30
0.0
 10
-309.549
 20
-196.6378
 30
0.0
 10
-309.549
 20
-196.6378
 30
0.0
 10
-309.4672
 20
-196.7233
 30
0.0
 10
-309.3647
 20
-196.7663
 30
0.0
 10
-309.2423
 20
-196.7663
 30
0.0
 10
-309.2423
 20
-196.7663
 30
0.0
 10
-309.1511
 20
-196.7663
 30
0.0
 10
-309.0731
 20
-196.7422
 30
0.0
 10
-309.0088
 20
-196.694
 30
0.0
 10
-309.0088
 20
-196.694
 30
0.0
 10
-308.9441
 20
-196.6458
 30
0.0
 10
-308.893
 20
-196.5688
 30
0.0
 10
-308.8552
 20
-196.463
 30
0.0
  0
SPLINE
  5
C6
330
1F
100
AcDbEntity
  8
Layer 1
 62
   250
100
AcDbSpline
210
0.0
220
0.0
230
1.0
 70
    11
 71
     3
 72
    24
 73
    20
 74
     0
 42
0.000000001
 43
0.0000000001
 40
0.0
 40
0.0
 40
0.0
 40
0.0
 40
0.1666666666666667
 40
0.1666666666666667
 40
0.1666666666666667
 40
0.1666666666666667
 40
0.3333333333333333
 40
0.3333333333333333
 40
0.3333333333333333
 40
0.3333333333333333
 40
0.5
 40
0.5
 40
0.5
 40
0.5
 40
0.6666666666666666
 40
0.6666666666666666
 40
0.6666666666666666
 40
0.6666666666666666
 40
1.0
 40
1.0
 40
1.0
 40
1.0
 10
-309.6718
 20
-196.0632
 30
0.0
 10
-309.6718
 20
-196.0632
 30
0.0
 10
-308.8524
 20
-196.0632
 30
0.0
 10
-308.8524
 20
-196.0632
 30
0.0
 10
-308.8524
 20
-196.0632
 30
0.0
 10
-308.8633
 20
-195.9393
 30
0.0
 10
-308.8949
 20
-195.8467
 30
0.0
 10
-308.9464
 20
-195.7848
 30
0.0
 10
-308.9464
 20
-195.7848
 30
0.0
 10
-309.0254
 20
-195.6889
 30
0.0
 10
-309.1284
 20
-195.6407
 30
0.0
 10
-309.2546
 20
-195.6407
 30
0.0
 10
-309.2546
 20
-195.6407
 30
0.0
 10
-309.3689
 20
-195.6407
 30
0.0
 10
-309.4648
 20
-195.679
 30
0.0
 10
-309.5428
 20
-195.7555
 30
0.0
 10
-309.5428
 20
-195.7555
 30
0.0
 10
-309.6203
 20
-195.8321
 30
0.0
 10
-309.6633
 20
-195.9346
 30
0.0
 10
-309.6718
 20
-196.0632
 30
0.0
  0
SPLINE
  5
C7
330
1F
100
AcDbEntity
  8
Layer 1
 62
   250
100
AcDbSpline
210
0.0
220
0.0
230
1.0
 70
    11
 71
     3
 72
    20
 73
    16
 74
     0
 42
0.000000001
 43
0.0000000001
 40
0.0
 40
0.0
 40
0.0
 40
0.0
 40
0.2
 40
0.2
 40
0.2
 40
0.2
 40
0.4
 40
0.4
 40
0.4
 40
0.4
 40
0.6
 40
0.6
 40
0.6
 40
0.6
 40
1.0
 40
1.0
 40
1.0
 40
1.0
 10
-308.2876
 20
-196.9393
 30
0.0
 10
-308.2876
 20
-196.9393
 30
0.0
 10
-308.2876
 20
-194.9092
 30
0.0
 10
-308.2876
 20
-194.9092
 30
0.0
 10
-308.2876
 20
-194.9092
 30
0.0
 10
-308.2876
 20
-194.9092
 30
0.0
 10
-308.0381
 20
-194.9092
 30
0.0
 10
-308.0381
 20
-194.9092
 30
0.0
 10
-308.0381
 20
-194.9092
 30
0.0
 10
-308.0381
 20
-194.9092
 30
0.0
 10
-308.0381
 20
-196.9393
 30
0.0
 10
-308.0381
 20
-196.9393
 30
0.0
 10
-308.0381
 20
-196.9393
 30
0.0
 10
-308.0381
 20
-196.9393
 30
0.0
 10
-308.2876
 20
-196.9393
 30
0.0
 10
-308.2876
 20
-196.9393
 30
0.0
  0
SPLINE
  5
C8
330
1F
100
AcDbEntity
  8
Layer 1
 62
   250
100
AcDbSpline
210
0.0
220
0.0
230
1.0
 70
    11
 71
     3
 72
    84
 73
    80
 74
     0
 42
0.000000001
 43
0.0000000001
 40
0.0
 40
0.0
 40
0.0
 40
0.0
 40
0.0476190476190476
 40
0.0476190476190476
 40
0.0476190476190476
 40
0.0476190476190476
 40
0.0952380952380952
 40
0.0952380952380952
 40
0.0952380952380952
 40
0.0952380952380952
 40
0.1428571428571428
 40
0.1428571428571428
 40
0.1428571428571428
 40
0.1428571428571428
 40
0.1904761904761905
 40
0.1904761904761905
 40
0.1904761904761905
 40
0.1904761904761905
 40
0.2380952380952381
 40
0.2380952380952381
 40
0.2380952380952381
 40
0.2380952380952381
 40
0.2857142857142857
 40
0.2857142857142857
 40
0.2857142857142857
 40
0.2857142857142857
 40
0.3333333333333333
 40
0.3333333333333333
 40
0.3333333333333333
 40
0.3333333333333333
 40
0.3809523809523809
 40
0.3809523809523809
 40
0.3809523809523809
 40
0.3809523809523809
 40
0.4285714285714285
 40
0.4285714285714285
 40
0.4285714285714285
 40
0.4285714285714285
 40
0.4761904761904762
 40
0.4761904761904762
 40
0.4761904761904762
 40
0.4761904761904762
 40
0.5238095238095238
 40
0.5238095238095238
 40
0.5238095238095238
 40
0.5238095238095238
 40
0.5714285714285714
 40
0.5714285714285714
 40
0.5714285714285714
 40
0.5714285714285714
 40
0.6190476190476191
 40
0.6190476190476191
 40
0.6190476190476191
 40
0.6190476190476191
 40
0.6666666666666666
 40
0.6666666666666666
 40
0.6666666666666666
 40
0.6666666666666666
 40
0.7142857142857143
 40
0.7142857142857143
 40
0.7142857142857143
 40
0.7142857142857143
 40
0.7619047619047619
 40
0.7619047619047619
 40
0.7619047619047619
 40
0.7619047619047619
 40
0.8095238095238095
 40
0.8095238095238095
 40
0.8095238095238095
 40
0.8095238095238095
 40
0.8571428571428571
 40
0.8571428571428571
 40
0.8571428571428571
 40
0.8571428571428571
 40
0.9047619047619048
 40
0.9047619047619048
 40
0.9047619047619048
 40
0.9047619047619048
 40
1.0
 40
1.0
 40
1.0
 40
1.0
 10
-307.1105
 20
-196.7167
 30
0.0
 10
-307.1105
 20
-196.7167
 30
0.0
 10
-307.0765
 20
-196.9369
 30
0.0
 10
-307.0765
 20
-196.9369
 30
0.0
 10
-307.0765
 20
-196.9369
 30
0.0
 10
-307.1464
 20
-196.9516
 30
0.0
 10
-307.2093
 20
-196.9591
 30
0.0
 10
-307.2641
 20
-196.9591
 30
0.0
 10
-307.2641
 20
-196.9591
 30
0.0
 10
-307.3543
 20
-196.9591
 30
0.0
 10
-307.4243
 20
-196.945
 30
0.0
 10
-307.4744
 20
-196.9161
 30
0.0
 10
-307.4744
 20
-196.9161
 30
0.0
 10
-307.524
 20
-196.8873
 30
0.0
 10
-307.559
 20
-196.85
 30
0.0
 10
-307.5793
 20
-196.8032
 30
0.0
 10
-307.5793
 20
-196.8032
 30
0.0
 10
-307.5996
 20
-196.7564
 30
0.0
 10
-307.6095
 20
-196.6581
 30
0.0
 10
-307.6095
 20
-196.5083
 30
0.0
 10
-307.6095
 20
-196.5083
 30
0.0
 10
-307.6095
 20
-196.5083
 30
0.0
 10
-307.6095
 20
-195.6605
 30
0.0
 10
-307.6095
 20
-195.6605
 30
0.0
 10
-307.6095
 20
-195.6605
 30
0.0
 10
-307.6095
 20
-195.6605
 30
0.0
 10
-307.7938
 20
-195.6605
 30
0.0
 10
-307.7938
 20
-195.6605
 30
0.0
 10
-307.7938
 20
-195.6605
 30
0.0
 10
-307.7938
 20
-195.6605
 30
0.0
 10
-307.7938
 20
-195.4677
 30
0.0
 10
-307.7938
 20
-195.4677
 30
0.0
 10
-307.7938
 20
-195.4677
 30
0.0
 10
-307.7938
 20
-195.4677
 30
0.0
 10
-307.6095
 20
-195.4677
 30
0.0
 10
-307.6095
 20
-195.4677
 30
0.0
 10
-307.6095
 20
-195.4677
 30
0.0
 10
-307.6095
 20
-195.4677
 30
0.0
 10
-307.6095
 20
-195.1039
 30
0.0
 10
-307.6095
 20
-195.1039
 30
0.0
 10
-307.6095
 20
-195.1039
 30
0.0
 10
-307.6095
 20
-195.1039
 30
0.0
 10
-307.36
 20
-194.954
 30
0.0
 10
-307.36
 20
-194.954
 30
0.0
 10
-307.36
 20
-194.954
 30
0.0
 10
-307.36
 20
-194.954
 30
0.0
 10
-307.36
 20
-195.4677
 30
0.0
 10
-307.36
 20
-195.4677
 30
0.0
 10
-307.36
 20
-195.4677
 30
0.0
 10
-307.36
 20
-195.4677
 30
0.0
 10
-307.1105
 20
-195.4677
 30
0.0
 10
-307.1105
 20
-195.4677
 30
0.0
 10
-307.1105
 20
-195.4677
 30
0.0
 10
-307.1105
 20
-195.4677
 30
0.0
 10
-307.1105
 20
-195.6605
 30
0.0
 10
-307.1105
 20
-195.6605
 30
0.0
 10
-307.1105
 20
-195.6605
 30
0.0
 10
-307.1105
 20
-195.6605
 30
0.0
 10
-307.36
 20
-195.6605
 30
0.0
 10
-307.36
 20
-195.6605
 30
0.0
 10
-307.36
 20
-195.6605
 30
0.0
 10
-307.36
 20
-195.6605
 30
0.0
 10
-307.36
 20
-196.5225
 30
0.0
 10
-307.36
 20
-196.5225
 30
0.0
 10
-307.36
 20
-196.5225
 30
0.0
 10
-307.36
 20
-196.5939
 30
0.0
 10
-307.3558
 20
-196.6397
 30
0.0
 10
-307.3468
 20
-196.66
 30
0.0
 10
-307.3468
 20
-196.66
 30
0.0
 10
-307.3383
 20
-196.6803
 30
0.0
 10
-307.3241
 20
-196.6964
 30
0.0
 10
-307.3043
 20
-196.7087
 30
0.0
 10
-307.3043
 20
-196.7087
 30
0.0
 10
-307.2844
 20
-196.7205
 30
0.0
 10
-307.2561
 20
-196.7266
 30
0.0
 10
-307.2192
 20
-196.7266
 30
0.0
 10
-307.2192
 20
-196.7266
 30
0.0
 10
-307.1918
 20
-196.7266
 30
0.0
 10
-307.1554
 20
-196.7233
 30
0.0
 10
-307.1105
 20
-196.7167
 30
0.0
  0
IMAGE
  5
CB
330
1F
100
AcDbEntity
  8
Layer 1
 62
   250
 92
      140
310
8C00000001000000840000000600000005000000C48042EBCCCE75C0CEFD7576A82E66C00000000000000000C48042EBCCCE75C00682A0459E3566C00000000000000000D8876940B0C375C00682A0459E3566C00000000000000000D8876940B0C375C0CEFD7576A82E66C00000000000000000C48042EBCCCE75C0CEFD75
310
76A82E66C00000000000000000
100
AcDbRasterImage
 90
        0
 10
-347.5448
 20
-193.8838
 30
0.0
 11
0.003977091858766658
 21
0.0
 31
0.0
 12
0.0
 22
0.003977769201530553
 32
0.0
 13
12572.0
 23
3936.0
340
CA
 70
     7
280
     1
281
    50
282
    50
283
     0
360
CC
 71
     1
 91
        2
 14
-347.5448
 24
-193.8838
 14
-172.92
 24
-139.2034
  0
SPLINE
  5
CD
330
1F
100
AcDbEntity
  8
Layer 1
 62
     4
370
     9
100
AcDbSpline
210
0.0
220
0.0
230
1.0
 70
    11
 71
     3
 72
   116
 73
   112
 74
     0
 42
0.000000001
 43
0.0000000001
 40
0.0
 40
0.0
 40
0.0
 40
0.0
 40
0.0344827586206897
 40
0.0344827586206897
 40
0.0344827586206897
 40
0.0344827586206897
 40
0.0689655172413793
 40
0.0689655172413793
 40
0.0689655172413793
 40
0.0689655172413793
 40
0.103448275862069
 40
0.103448275862069
 40
0.103448275862069
 40
0.103448275862069
 40
0.1379310344827586
 40
0.1379310344827586
 40
0.1379310344827586
 40
0.1379310344827586
 40
0.1724137931034483
 40
0.1724137931034483
 40
0.1724137931034483
 40
0.1724137931034483
 40
0.2068965517241379
 40
0.2068965517241379
 40
0.2068965517241379
 40
0.2068965517241379
 40
0.2413793103448276
 40
0.2413793103448276
 40
0.2413793103448276
 40
0.2413793103448276
 40
0.2758620689655172
 40
0.2758620689655172
 40
0.2758620689655172
 40
0.2758620689655172
 40
0.3103448275862069
 40
0.3103448275862069
 40
0.3103448275862069
 40
0.3103448275862069
 40
0.3448275862068966
 40
0.3448275862068966
 40
0.3448275862068966
 40
0.3448275862068966
 40
0.3793103448275862
 40
0.3793103448275862
 40
0.3793103448275862
 40
0.3793103448275862
 40
0.4137931034482759
 40
0.4137931034482759
 40
0.4137931034482759
 40
0.4137931034482759
 40
0.4482758620689655
 40
0.4482758620689655
 40
0.4482758620689655
 40
0.4482758620689655
 40
0.4827586206896552
 40
0.4827586206896552
 40
0.4827586206896552
 40
0.4827586206896552
 40
0.5172413793103449
 40
0.5172413793103449
 40
0.5172413793103449
 40
0.5172413793103449
 40
0.5517241379310345
 40
0.5517241379310345
 40
0.5517241379310345
 40
0.5517241379310345
 40
0.5862068965517241
 40
0.5862068965517241
 40
0.5862068965517241
 40
0.5862068965517241
 40
0.6206896551724138
 40
0.6206896551724138
 40
0.6206896551724138
 40
0.6206896551724138
 40
0.6551724137931034
 40
0.6551724137931034
 40
0.6551724137931034
 40
0.6551724137931034
 40
0.6896551724137931
 40
0.6896551724137931
 40
0.6896551724137931
 40
0.6896551724137931
 40
0.7241379310344828
 40
0.7241379310344828
 40
0.7241379310344828
 40
0.7241379310344828
 40
0.7586206896551724
 40
0.7586206896551724
 40
0.7586206896551724
 40
0.7586206896551724
 40
0.7931034482758621
 40
0.7931034482758621
 40
0.7931034482758621
 40
0.7931034482758621
 40
0.8275862068965517
 40
0.8275862068965517
 40
0.8275862068965517
 40
0.8275862068965517
 40
0.8620689655172413
 40
0.8620689655172413
 40
0.8620689655172413
 40
0.8620689655172413
 40
0.896551724137931
 40
0.896551724137931
 40
0.896551724137931
 40
0.896551724137931
 40
0.9310344827586207
 40
0.9310344827586207
 40
0.9310344827586207
 40
0.9310344827586207
 40
1.0
 40
1.0
 40
1.0
 40
1.0
 10
-350.0
 20
57.9362
 30
0.0
 10
-350.0
 20
57.9362
 30
0.0
 10
-350.0
 20
-22.0639
 30
0.0
 10
-350.0
 20
-22.0639
 30
0.0
 10
-350.0
 20
-22.0639
 30
0.0
 10
-350.0
 20
-22.0639
 30
0.0
 10
-340.1603
 20
-22.0639
 30
0.0
 10
-340.1603
 20
-22.0639
 30
0.0
 10
-340.1603
 20
-22.0639
 30
0.0
 10
-340.1603
 20
-22.0639
 30
0.0
 10
-340.1603
 20
-26.0639
 30
0.0
 10
-340.1603
 20
-26.0639
 30
0.0
 10
-340.1603
 20
-26.0639
 30
0.0
 10
-340.1603
 20
-26.0639
 30
0.0
 10
-329.9603
 20
-26.0639
 30
0.0
 10
-329.9603
 20
-26.0639
 30
0.0
 10
-329.9603
 20
-26.0639
 30
0.0
 10
-329.9603
 20
-26.0639
 30
0.0
 10
-329.9603
 20
-22.0639
 30
0.0
 10
-329.9603
 20
-22.0639
 30
0.0
 10
-329.9603
 20
-22.0639
 30
0.0
 10
-329.9603
 20
-22.0639
 30
0.0
 10
-231.1427
 20
-22.0639
 30
0.0
 10
-231.1427
 20
-22.0639
 30
0.0
 10
-231.1427
 20
-22.0639
 30
0.0
 10
-231.1427
 20
-22.0639
 30
0.0
 10
-231.1427
 20
-26.0639
 30
0.0
 10
-231.1427
 20
-26.0639
 30
0.0
 10
-231.1427
 20
-26.0639
 30
0.0
 10
-231.1427
 20
-26.0639
 30
0.0
 10
-220.9427
 20
-26.0639
 30
0.0
 10
-220.9427
 20
-26.0639
 30
0.0
 10
-220.9427
 20
-26.0639
 30
0.0
 10
-220.9427
 20
-26.0639
 30
0.0
 10
-220.9427
 20
-22.0639
 30
0.0
 10
-220.9427
 20
-22.0639
 30
0.0
 10
-220.9427
 20
-22.0639
 30
0.0
 10
-220.9427
 20
-22.0639
 30
0.0
 10
-122.1253
 20
-22.0639
 30
0.0
 10
-122.1253
 20
-22.0639
 30
0.0
 10
-122.1253
 20
-22.0639
 30
0.0
 10
-122.1253
 20
-22.0639
 30
0.0
 10
-122.1253
 20
-26.0639
 30
0.0
 10
-122.1253
 20
-26.0639
 30
0.0
 10
-122.1253
 20
-26.0639
 30
0.0
 10
-122.1253
 20
-26.0639
 30
0.0
 10
-111.9253
 20
-26.0639
 30
0.0
 10
-111.9253
 20
-26.0639
 30
0.0
 10
-111.9253
 20
-26.0639
 30
0.0
 10
-111.9253
 20
-26.0639
 30
0.0
 10
-111.9253
 20
-22.0639
 30
0.0
 10
-111.9253
 20
-22.0639
 30
0.0
 10
-111.9253
 20
-22.0639
 30
0.0
 10
-111.9253
 20
-22.0639
 30
0.0
 10
-102.0854
 20
-22.0639
 30
0.0
 10
-102.0854
 20
-22.0639
 30
0.0
 10
-102.0854
 20
-22.0639
 30
0.0
 10
-102.0854
 20
-22.0639
 30
0.0
 10
-102.0854
 20
57.9362
 30
0.0
 10
-102.0854
 20
57.9362
 30
0.0
 10
-102.0854
 20
57.9362
 30
0.0
 10
-102.0854
 20
57.9362
 30
0.0
 10
-111.9253
 20
57.9362
 30
0.0
 10
-111.9253
 20
57.9362
 30
0.0
 10
-111.9253
 20
57.9362
 30
0.0
 10
-111.9253
 20
57.9362
 30
0.0
 10
-111.9253
 20
61.9362
 30
0.0
 10
-111.9253
 20
61.9362
 30
0.0
 10
-111.9253
 20
61.9362
 30
0.0
 10
-111.9253
 20
61.9362
 30
0.0
 10
-122.1253
 20
61.9362
 30
0.0
 10
-122.1253
 20
61.9362
 30
0.0
 10
-122.1253
 20
61.9362
 30
0.0
 10
-122.1253
 20
61.9362
 30
0.0
 10
-122.1253
 20
57.9362
 30
0.0
 10
-122.1253
 20
57.9362
 30
0.0
 10
-122.1253
 20
57.9362
 30
0.0
 10
-122.1253
 20
57.9362
 30
0.0
 10
-220.9427
 20
57.9362
 30
0.0
 10
-220.9427
 20
57.9362
 30
0.0
 10
-220.9427
 20
57.9362
 30
0.0
 10
-220.9427
 20
57.9362
 30
0.0
 10
-220.9427
 20
61.9362
 30
0.0
 10
-220.9427
 20
61.9362
 30
0.0
 10
-220.9427
 20
61.9362
 30
0.0
 10
-220.9427
 20
61.9362
 30
0.0
 10
-231.1427
 20
61.9362
 30
0.0
 10
-231.1427
 20
61.9362
 30
0.0
 10
-231.1427
 20
61.9362
 30
0.0
 10
-231.1427
 20
61.9362
 30
0.0
 10
-231.1427
 20
57.9362
 30
0.0
 10
-231.1427
 20
57.9362
 30
0.0
 10
-231.1427
 20
57.9362
 30
0.0
 10
-231.1427
 20
57.9362
 30
0.0
 10
-329.9603
 20
57.9362
 30
0.0
 10
-329.9603
 20
57.9362
 30
0.0
 10
-329.9603
 20
57.9362
 30
0.0
 10
-329.9603
 20
57.9362
 30
0.0
 10
-329.9603
 20
61.9362
 30
0.0
 10
-329.9603
 20
61.9362
 30
0.0
 10
-329.9603
 20
61.9362
 30
0.0
 10
-329.9603
 20
61.9362
 30
0.0
 10
-340.1603
 20
61.9362
 30
0.0
 10
-340.1603
 20
61.9362
 30
0.0
 10
-340.1603
 20
61.9362
 30
0.0
 10
-340.1603
 20
61.9362
 30
0.0
 10
-340.1603
 20
57.9362
 30
0.0
 10
-340.1603
 20
57.9362
 30
0.0
 10
-340.1603
 20
57.9362
 30
0.0
 10
-340.1603
 20
57.9362
 30
0.0
 10
-350.0
 20
57.9362
 30
0.0
 10
-350.0
 20
57.9362
 30
0.0
  0
ENDSEC
  0
SECTION
  2
OBJECTS
  0
DICTIONARY
  5
C
330
0
100
AcDbDictionary
281
     1
  3
ACAD_DETAILVIEWSTYLE
350
109
  3
ACAD_GROUP
350
D
  3
ACAD_IMAGE_DICT
350
C9
  3
ACAD_LAYOUT
350
1A
  3
ACAD_MATERIAL
350
43
  3
ACAD_MLEADERSTYLE
350
6B
  3
ACAD_MLINESTYLE
350
17
  3
ACAD_PLOTSETTINGS
350
19
  3
ACAD_PLOTSTYLENAME
350
E
  3
ACAD_SCALELIST
350
47
  3
ACAD_SECTIONVIEWSTYLE
350
10A
  3
ACAD_TABLESTYLE
350
69
  3
ACAD_VISUALSTYLE
350
2A
  3
ACDB_RECOMPOSE_DATA
350
106
  3
AcDbVariableDictionary
350
CE
  0
SUN
  5
6D
330
29
100
AcDbSun
 90
        1
290
     0
 63
     7
421
 16777215
 40
1.0
291
     1
 91
  2455826
 92
 54000000
292
     0
 70
     2
 71
   256
280
     1
  0
IMAGEDEF_REACTOR
  5
CC
330
CB
100
AcDbRasterImageDefReactor
 90
        2
330
CB
  0
DICTIONARY
  5
109
102
{ACAD_REACTORS
330
C
102
}
330
C
100
AcDbDictionary
281
     1
  0
DICTIONARY
  5
D
102
{ACAD_REACTORS
330
C
102
}
330
C
100
AcDbDictionary
281
     1
  0
DICTIONARY
  5
C9
102
{ACAD_REACTORS
330
C
102
}
330
C
100
AcDbDictionary
281
     1
  3
Image #1
350
CA
  0
DICTIONARY
  5
1A
102
{ACAD_REACTORS
330
C
102
}
330
C
100
AcDbDictionary
281
     1
  3
Layout1
350
1E
  3
Layout2
350
26
  3
Model
350
22
  0
DICTIONARY
  5
43
102
{ACAD_REACTORS
330
C
102
}
330
C
100
AcDbDictionary
281
     1
  3
ByBlock
350
45
  3
ByLayer
350
44
  3
Global
350
46
  0
DICTIONARY
  5
6B
102
{ACAD_REACTORS
330
C
102
}
330
C
100
AcDbDictionary
281
     1
  3
Standard
350
6C
  0
DICTIONARY
  5
17
102
{ACAD_REACTORS
330
C
102
}
330
C
100
AcDbDictionary
281
     1
  3
Standard
350
18
  0
DICTIONARY
  5
19
102
{ACAD_REACTORS
330
C
102
}
330
C
100
AcDbDictionary
281
     1
  0
ACDBDICTIONARYWDFLT
  5
E
102
{ACAD_REACTORS
330
C
102
}
330
C
100
AcDbDictionary
281
     1
  3
Normal
350
F
100
AcDbDictionaryWithDefault
340
F
  0
DICTIONARY
  5
47
102
{ACAD_REACTORS
330
C
102
}
330
C
100
AcDbDictionary
281
     1
  3
A0
350
48
  3
A1
350
49
  3
A2
350
4A
  3
A3
350
4B
  3
A4
350
4C
  3
A5
350
4D
  3
A6
350
4E
  3
A7
350
4F
  3
A8
350
50
  3
A9
350
51
  3
B0
350
52
  3
B1
350
53
  3
B2
350
54
  3
B3
350
55
  3
B4
350
56
  3
B5
350
57
  3
B6
350
58
  3
B7
350
59
  3
B8
350
5A
  3
B9
350
5B
  3
C0
350
5C
  3
C1
350
5D
  3
C2
350
5E
  3
C3
350
5F
  3
C4
350
60
  3
C5
350
61
  3
C6
350
62
  3
C7
350
63
  3
C8
350
64
  3
C9
350
65
  3
D0
350
66
  3
D1
350
67
  3
D2
350
68
  0
DICTIONARY
  5
10A
102
{ACAD_REACTORS
330
C
102
}
330
C
100
AcDbDictionary
281
     1
  0
DICTIONARY
  5
69
102
{ACAD_REACTORS
330
C
102
}
330
C
100
AcDbDictionary
281
     1
  3
Standard
350
6A
  0
DICTIONARY
  5
2A
102
{ACAD_REACTORS
330
C
102
}
330
C
100
AcDbDictionary
281
     1
  3
2dWireframe
350
2F
  3
Basic
350
32
  3
Brighten
350
36
  3
ColorChange
350
3A
  3
Conceptual
350
34
  3
Dim
350
35
  3
EdgeColorOff
350
3D
  3
Facepattern
350
39
  3
Flat
350
2B
  3
FlatWithEdges
350
2C
  3
Gouraud
350
2D
  3
GouraudWithEdges
350
2E
  3
Hidden
350
31
  3
JitterOff
350
3B
  3
Linepattern
350
38
  3
OverhangOff
350
3C
  3
Realistic
350
33
  3
Shaded
350
42
  3
Shaded with edges
350
41
  3
Shades of Gray
350
3E
  3
Sketchy
350
3F
  3
Thicken
350
37
  3
Wireframe
350
30
  3
X-Ray
350
40
  0
XRECORD
  5
106
102
{ACAD_REACTORS
330
C
102
}
330
C
100
AcDbXrecord
280
     1
 90
        1
330
6A
  0
DICTIONARY
  5
CE
102
{ACAD_REACTORS
330
C
102
}
330
C
100
AcDbDictionary
281
     1
  3
CANNOSCALE
350
CF
  3
CMLEADERSTYLE
350
108
  3
CTABLESTYLE
350
107
  3
XCLIPFRAME
350
D0
  0
IMAGEDEF
  5
CA
102
{ACAD_REACTORS
330
C9
330
CC
102
}
330
C9
100
AcDbRasterImageDef
 90
        0
  1
G:\My Drive\makerspace\trotec lasercutting\andere\peter bogaerts transport_ACD_0.jpg
 10
12572.0
 20
3936.0
 11
7.954183900731785E-5
 21
7.954183900731785E-5
280
     1
281
     5
  0
LAYOUT
  5
1E
102
{ACAD_REACTORS
330
1A
102
}
330
1A
100
AcDbPlotSettings
  1

  2
none_device
  4

  6

 40
0.0
 41
0.0
 42
0.0
 43
0.0
 44
0.0
 45
0.0
 46
0.0
 47
0.0
 48
0.0
 49
0.0
140
0.0
141
0.0
142
1.0
143
1.0
 70
   688
 72
     0
 73
     0
 74
     5
  7

 75
    16
 76
     0
 77
     2
 78
   300
147
1.0
148
0.0
149
0.0
100
AcDbLayout
  1
Layout1
 70
     1
 71
     1
 10
0.0
 20
0.0
 11
12.0
 21
9.0
 12
0.0
 22
0.0
 32
0.0
 14
1.000000000000000E+20
 24
1.000000000000000E+20
 34
1.000000000000000E+20
 15
-1.000000000000000E+20
 25
-1.000000000000000E+20
 35
-1.000000000000000E+20
146
0.0
 13
0.0
 23
0.0
 33
0.0
 16
1.0
 26
0.0
 36
0.0
 17
0.0
 27
1.0
 37
0.0
 76
     0
330
1B
  0
LAYOUT
  5
26
102
{ACAD_REACTORS
330
1A
102
}
330
1A
100
AcDbPlotSettings
  1

  2
none_device
  4

  6

 40
0.0
 41
0.0
 42
0.0
 43
0.0
 44
0.0
 45
0.0
 46
0.0
 47
0.0
 48
0.0
 49
0.0
140
0.0
141
0.0
142
1.0
143
1.0
 70
   688
 72
     0
 73
     0
 74
     5
  7

 75
    16
 76
     0
 77
     2
 78
   300
147
1.0
148
0.0
149
0.0
100
AcDbLayout
  1
Layout2
 70
     1
 71
     2
 10
0.0
 20
0.0
 11
0.0
 21
0.0
 12
0.0
 22
0.0
 32
0.0
 14
0.0
 24
0.0
 34
0.0
 15
0.0
 25
0.0
 35
0.0
146
0.0
 13
0.0
 23
0.0
 33
0.0
 16
1.0
 26
0.0
 36
0.0
 17
0.0
 27
1.0
 37
0.0
 76
     0
330
23
  0
LAYOUT
  5
22
102
{ACAD_REACTORS
330
1A
102
}
330
1A
100
AcDbPlotSettings
  1

  2
none_device
  4
Letter_(8.50_x_11.00_Inches)
  6

 40
6.35
 41
6.35
 42
6.35000508
 43
6.35000508
 44
215.9
 45
279.4
 46
0.0
 47
0.0
 48
0.0
 49
0.0
140
0.0
141
0.0
142
1.0
143
1.0
 70
  1712
 72
     0
 73
     0
 74
     0
  7

 75
     0
 76
     0
 77
     2
 78
   300
147
1.0
148
0.0
149
0.0
100
AcDbLayout
  1
Model
 70
     1
 71
     0
 10
0.0
 20
0.0
 11
12.0
 21
9.0
 12
0.0
 22
0.0
 32
0.0
 14
-350.0381
 24
-200.0381
 34
0.0
 15
0.0381
 25
197.9515
 35
0.0
146
0.0
 13
0.0
 23
0.0
 33
0.0
 16
1.0
 26
0.0
 36
0.0
 17
0.0
 27
1.0
 37
0.0
 76
     0
330
1F
331
29
  0
MATERIAL
  5
45
102
{ACAD_REACTORS
330
43
102
}
330
43
100
AcDbMaterial
  1
ByBlock
 72
     1
 94
      127
  0
MATERIAL
  5
44
102
{ACAD_REACTORS
330
43
102
}
330
43
100
AcDbMaterial
  1
ByLayer
 72
     1
 94
      127
  0
MATERIAL
  5
46
102
{ACAD_REACTORS
330
43
102
}
330
43
100
AcDbMaterial
  1
Global
 72
     1
 94
      127
  0
MLEADERSTYLE
  5
6C
102
{ACAD_REACTORS
330
6B
102
}
102
{ACAD_XDICTIONARY
360
104
102
}
330
6B
100
AcDbMLeaderStyle
170
     2
171
     1
172
     0
 90
        2
 40
0.0
 41
0.0
173
     1
 91
-1056964608
340
14
 92
       -2
290
     1
 42
0.09
291
     1
 43
0.36
  3
Standard
341
0
 44
0.18
300

342
11
174
     1
178
     6
175
     1
176
     0
 93
-1056964608
 45
0.18
292
     0
297
     0
 46
0.18
343
0
 94
-1056964608
 47
1.0
 49
1.0
140
1.0
293
     1
141
0.0
294
     1
177
     0
142
1.0
295
     0
296
     0
143
0.125
1001
ACAD_MLEADERVER
1070
     2
  0
MLINESTYLE
  5
18
102
{ACAD_REACTORS
330
17
102
}
330
17
100
AcDbMlineStyle
  2
Standard
 70
     0
  3

 62
   256
 51
90.0
 52
90.0
 71
     2
 49
0.5
 62
   256
  6
BYLAYER
 49
-0.5
 62
   256
  6
BYLAYER
  0
ACDBPLACEHOLDER
  5
F
102
{ACAD_REACTORS
330
E
102
}
330
E
  0
SCALE
  5
48
102
{ACAD_REACTORS
330
47
102
}
330
47
100
AcDbScale
 70
     0
300
1:1
140
1.0
141
1.0
290
     1
  0
SCALE
  5
49
102
{ACAD_REACTORS
330
47
102
}
330
47
100
AcDbScale
 70
     0
300
1:2
140
1.0
141
2.0
290
     0
  0
SCALE
  5
4A
102
{ACAD_REACTORS
330
47
102
}
330
47
100
AcDbScale
 70
     0
300
1:4
140
1.0
141
4.0
290
     0
  0
SCALE
  5
4B
102
{ACAD_REACTORS
330
47
102
}
330
47
100
AcDbScale
 70
     0
300
1:5
140
1.0
141
5.0
290
     0
  0
SCALE
  5
4C
102
{ACAD_REACTORS
330
47
102
}
330
47
100
AcDbScale
 70
     0
300
1:8
140
1.0
141
8.0
290
     0
  0
SCALE
  5
4D
102
{ACAD_REACTORS
330
47
102
}
330
47
100
AcDbScale
 70
     0
300
1:10
140
1.0
141
10.0
290
     0
  0
SCALE
  5
4E
102
{ACAD_REACTORS
330
47
102
}
330
47
100
AcDbScale
 70
     0
300
1:16
140
1.0
141
16.0
290
     0
  0
SCALE
  5
4F
102
{ACAD_REACTORS
330
47
102
}
330
47
100
AcDbScale
 70
     0
300
1:20
140
1.0
141
20.0
290
     0
  0
SCALE
  5
50
102
{ACAD_REACTORS
330
47
102
}
330
47
100
AcDbScale
 70
     0
300
1:30
140
1.0
141
30.0
290
     0
  0
SCALE
  5
51
102
{ACAD_REACTORS
330
47
102
}
330
47
100
AcDbScale
 70
     0
300
1:40
140
1.0
141
40.0
290
     0
  0
SCALE
  5
52
102
{ACAD_REACTORS
330
47
102
}
330
47
100
AcDbScale
 70
     0
300
1:50
140
1.0
141
50.0
290
     0
  0
SCALE
  5
53
102
{ACAD_REACTORS
330
47
102
}
330
47
100
AcDbScale
 70
     0
300
1:100
140
1.0
141
100.0
290
     0
  0
SCALE
  5
54
102
{ACAD_REACTORS
330
47
102
}
330
47
100
AcDbScale
 70
     0
300
2:1
140
2.0
141
1.0
290
     0
  0
SCALE
  5
55
102
{ACAD_REACTORS
330
47
102
}
330
47
100
AcDbScale
 70
     0
300
4:1
140
4.0
141
1.0
290
     0
  0
SCALE
  5
56
102
{ACAD_REACTORS
330
47
102
}
330
47
100
AcDbScale
 70
     0
300
8:1
140
8.0
141
1.0
290
     0
  0
SCALE
  5
57
102
{ACAD_REACTORS
330
47
102
}
330
47
100
AcDbScale
 70
     0
300
10:1
140
10.0
141
1.0
290
     0
  0
SCALE
  5
58
102
{ACAD_REACTORS
330
47
102
}
330
47
100
AcDbScale
 70
     0
300
100:1
140
100.0
141
1.0
290
     0
  0
SCALE
  5
59
102
{ACAD_REACTORS
330
47
102
}
330
47
100
AcDbScale
 70
     0
300
1/128" = 1'-0"
140
0.0078125
141
12.0
290
     0
  0
SCALE
  5
5A
102
{ACAD_REACTORS
330
47
102
}
330
47
100
AcDbScale
 70
     0
300
1/64" = 1'-0"
140
0.015625
141
12.0
290
     0
  0
SCALE
  5
5B
102
{ACAD_REACTORS
330
47
102
}
330
47
100
AcDbScale
 70
     0
300
1/32" = 1'-0"
140
0.03125
141
12.0
290
     0
  0
SCALE
  5
5C
102
{ACAD_REACTORS
330
47
102
}
330
47
100
AcDbScale
 70
     0
300
1/16" = 1'-0"
140
0.0625
141
12.0
290
     0
  0
SCALE
  5
5D
102
{ACAD_REACTORS
330
47
102
}
330
47
100
AcDbScale
 70
     0
300
3/32" = 1'-0"
140
0.09375
141
12.0
290
     0
  0
SCALE
  5
5E
102
{ACAD_REACTORS
330
47
102
}
330
47
100
AcDbScale
 70
     0
300
1/8" = 1'-0"
140
0.125
141
12.0
290
     0
  0
SCALE
  5
5F
102
{ACAD_REACTORS
330
47
102
}
330
47
100
AcDbScale
 70
     0
300
3/16" = 1'-0"
140
0.1875
141
12.0
290
     0
  0
SCALE
  5
60
102
{ACAD_REACTORS
330
47
102
}
330
47
100
AcDbScale
 70
     0
300
1/4" = 1'-0"
140
0.25
141
12.0
290
     0
  0
SCALE
  5
61
102
{ACAD_REACTORS
330
47
102
}
330
47
100
AcDbScale
 70
     0
300
3/8" = 1'-0"
140
0.375
141
12.0
290
     0
  0
SCALE
  5
62
102
{ACAD_REACTORS
330
47
102
}
330
47
100
AcDbScale
 70
     0
300
1/2" = 1'-0"
140
0.5
141
12.0
290
     0
  0
SCALE
  5
63
102
{ACAD_REACTORS
330
47
102
}
330
47
100
AcDbScale
 70
     0
300
3/4" = 1'-0"
140
0.75
141
12.0
290
     0
  0
SCALE
  5
64
102
{ACAD_REACTORS
330
47
102
}
330
47
100
AcDbScale
 70
     0
300
1" = 1'-0"
140
1.0
141
12.0
290
     0
  0
SCALE
  5
65
102
{ACAD_REACTORS
330
47
102
}
330
47
100
AcDbScale
 70
     0
300
1-1/2" = 1'-0"
140
1.5
141
12.0
290
     0
  0
SCALE
  5
66
102
{ACAD_REACTORS
330
47
102
}
330
47
100
AcDbScale
 70
     0
300
3" = 1'-0"
140
3.0
141
12.0
290
     0
  0
SCALE
  5
67
102
{ACAD_REACTORS
330
47
102
}
330
47
100
AcDbScale
 70
     0
300
6" = 1'-0"
140
6.0
141
12.0
290
     0
  0
SCALE
  5
68
102
{ACAD_REACTORS
330
47
102
}
330
47
100
AcDbScale
 70
     0
300
1'-0" = 1'-0"
140
12.0
141
12.0
290
     0
  0
TABLESTYLE
  5
6A
102
{ACAD_REACTORS
330
69
102
}
102
{ACAD_XDICTIONARY
360
101
102
}
330
69
100
AcDbTableStyle
  3
Standard
 70
     0
 71
     0
 40
0.06
 41
0.06
280
     0
281
     0
  7
Standard
140
0.18
170
     2
 62
     0
 63
   257
283
     0
 90
        4
 91
        0
  1

274
    -2
284
     1
 64
     0
275
    -2
285
     1
 65
     0
276
    -2
286
     1
 66
     0
277
    -2
287
     1
 67
     0
278
    -2
288
     1
 68
     0
279
    -2
289
     1
 69
     0
  7
Standard
140
0.25
170
     5
 62
     0
 63
   257
283
     0
 90
        4
 91
        0
  1

274
    -2
284
     1
 64
     0
275
    -2
285
     1
 65
     0
276
    -2
286
     1
 66
     0
277
    -2
287
     1
 67
     0
278
    -2
288
     1
 68
     0
279
    -2
289
     1
 69
     0
  7
Standard
140
0.18
170
     5
 62
     0
 63
   257
283
     0
 90
        4
 91
        0
  1

274
    -2
284
     1
 64
     0
275
    -2
285
     1
 65
     0
276
    -2
286
     1
 66
     0
277
    -2
287
     1
 67
     0
278
    -2
288
     1
 68
     0
279
    -2
289
     1
 69
     0
  0
VISUALSTYLE
  5
2F
102
{ACAD_REACTORS
330
2A
102
}
102
{ACAD_XDICTIONARY
360
D9
102
}
330
2A
100
AcDbVisualStyle
  2
2dWireframe
 70
     4
 71
     0
 72
     2
 73
     0
 90
        0
 40
0.6
 41
30.0
 62
     5
 63
     7
421
 16777215
 74
     1
 91
        4
 64
     7
 65
   257
 75
     1
175
     1
 42
1.0
 92
        0
 66
   257
 43
1.0
 76
     1
 77
     6
 78
     2
 67
     7
 79
     5
170
     0
171
     0
290
     0
174
     0
 93
        1
 44
0.0
173
     0
291
     0
 45
0.0
  0
VISUALSTYLE
  5
32
102
{ACAD_REACTORS
330
2A
102
}
102
{ACAD_XDICTIONARY
360
DF
102
}
330
2A
100
AcDbVisualStyle
  2
Basic
 70
     7
 71
     1
 72
     0
 73
     1
 90
        0
 40
0.6
 41
30.0
 62
     5
 63
     7
421
 16777215
 74
     0
 91
        4
 64
     7
 65
   257
 75
     1
175
     1
 42
1.0
 92
        8
 66
     7
 43
1.0
 76
     1
 77
     6
 78
     2
 67
     7
 79
     5
170
     0
171
     0
290
     0
174
     0
 93
        1
 44
0.0
173
     0
291
     1
 45
0.0
  0
VISUALSTYLE
  5
36
102
{ACAD_REACTORS
330
2A
102
}
102
{ACAD_XDICTIONARY
360
E7
102
}
330
2A
100
AcDbVisualStyle
  2
Brighten
 70
    12
 71
     2
 72
     2
 73
     0
 90
        0
 40
0.6
 41
30.0
 62
     5
 63
     7
421
 16777215
 74
     1
 91
        4
 64
     7
 65
   257
 75
     1
175
     1
 42
1.0
 92
        8
 66
     7
 43
1.0
 76
     1
 77
     6
 78
     2
 67
     7
 79
     5
170
     0
171
     0
290
     0
174
     0
 93
        1
 44
50.0
173
     0
291
     1
 45
0.0
  0
VISUALSTYLE
  5
3A
102
{ACAD_REACTORS
330
2A
102
}
102
{ACAD_XDICTIONARY
360
EF
102
}
330
2A
100
AcDbVisualStyle
  2
ColorChange
 70
    16
 71
     2
 72
     2
 73
     3
 90
        0
 40
0.6
 41
30.0
 62
     5
 63
     8
421
  8421504
 74
     1
 91
        4
 64
     7
 65
   257
 75
     1
175
     1
 42
1.0
 92
        8
 66
     8
424
  8421504
 43
1.0
 76
     1
 77
     6
 78
     2
 67
     7
 79
     5
170
     0
171
     0
290
     0
174
     0
 93
        1
 44
0.0
173
     0
291
     1
 45
0.0
  0
VISUALSTYLE
  5
34
102
{ACAD_REACTORS
330
2A
102
}
102
{ACAD_XDICTIONARY
360
E3
102
}
330
2A
100
AcDbVisualStyle
  2
Conceptual
 70
     9
 71
     3
 72
     2
 73
     0
 90
        0
 40
0.6
 41
30.0
 62
     5
 63
     7
421
 16777215
 74
     2
 91
        2
 64
     7
 65
   257
 75
     1
175
     1
 42
179.0
 92
        8
 66
     7
 43
1.0
 76
     1
 77
     6
 78
     2
 67
     7
 79
     3
170
     0
171
     0
290
     0
174
     0
 93
        1
 44
0.0
173
     0
291
     0
 45
0.0
  0
VISUALSTYLE
  5
35
102
{ACAD_REACTORS
330
2A
102
}
102
{ACAD_XDICTIONARY
360
E5
102
}
330
2A
100
AcDbVisualStyle
  2
Dim
 70
    11
 71
     2
 72
     2
 73
     0
 90
        0
 40
0.6
 41
30.0
 62
     5
 63
     7
421
 16777215
 74
     1
 91
        4
 64
     7
 65
   257
 75
     1
175
     1
 42
1.0
 92
        8
 66
     7
 43
1.0
 76
     1
 77
     6
 78
     2
 67
     7
 79
     5
170
     0
171
     0
290
     0
174
     0
 93
        1
 44
-50.0
173
     0
291
     1
 45
0.0
  0
VISUALSTYLE
  5
3D
102
{ACAD_REACTORS
330
2A
102
}
102
{ACAD_XDICTIONARY
360
F5
102
}
330
2A
100
AcDbVisualStyle
  2
EdgeColorOff
 70
    22
 71
     2
 72
     2
 73
     0
 90
        0
 40
0.6
 41
30.0
 62
     5
 63
     7
421
 16777215
 74
     1
 91
        4
 64
     7
 65
   257
 75
     1
175
     1
 42
1.0
 92
        8
 66
     7
 43
1.0
 76
     1
 77
     6
 78
     2
 67
     7
 79
     5
170
     0
171
     0
290
     0
174
     0
 93
        1
 44
0.0
173
     0
291
     1
 45
0.0
  0
VISUALSTYLE
  5
39
102
{ACAD_REACTORS
330
2A
102
}
102
{ACAD_XDICTIONARY
360
ED
102
}
330
2A
100
AcDbVisualStyle
  2
Facepattern
 70
    15
 71
     2
 72
     2
 73
     0
 90
        0
 40
0.6
 41
30.0
 62
     5
 63
     7
421
 16777215
 74
     1
 91
        4
 64
     7
 65
   257
 75
     1
175
     1
 42
1.0
 92
        8
 66
     7
 43
1.0
 76
     1
 77
     6
 78
     2
 67
     7
 79
     5
170
     0
171
     0
290
     0
174
     0
 93
        1
 44
0.0
173
     0
291
     1
 45
0.0
  0
VISUALSTYLE
  5
2B
102
{ACAD_REACTORS
330
2A
102
}
102
{ACAD_XDICTIONARY
360
D1
102
}
330
2A
100
AcDbVisualStyle
  2
Flat
 70
     0
 71
     2
 72
     1
 73
     1
 90
        2
 40
0.6
 41
30.0
 62
     5
 63
     7
421
 16777215
 74
     0
 91
        0
 64
     7
 65
   257
 75
     1
175
     1
 42
1.0
 92
        8
 66
     7
 43
1.0
 76
     1
 77
     6
 78
     2
 67
     7
 79
     5
170
     0
171
     0
290
     0
174
     0
 93
       13
 44
0.0
173
     0
291
     1
 45
0.0
  0
VISUALSTYLE
  5
2C
102
{ACAD_REACTORS
330
2A
102
}
102
{ACAD_XDICTIONARY
360
D3
102
}
330
2A
100
AcDbVisualStyle
  2
FlatWithEdges
 70
     1
 71
     2
 72
     1
 73
     1
 90
        2
 40
0.6
 41
30.0
 62
     5
 63
     7
421
 16777215
 74
     1
 91
        0
 64
     7
 65
   257
 75
     1
175
     1
 42
1.0
 92
        0
 66
   257
 43
1.0
 76
     1
 77
     6
 78
     2
 67
     7
 79
     5
170
     0
171
     0
290
     0
174
     0
 93
       13
 44
0.0
173
     0
291
     1
 45
0.0
  0
VISUALSTYLE
  5
2D
102
{ACAD_REACTORS
330
2A
102
}
102
{ACAD_XDICTIONARY
360
D5
102
}
330
2A
100
AcDbVisualStyle
  2
Gouraud
 70
     2
 71
     2
 72
     2
 73
     1
 90
        2
 40
0.6
 41
30.0
 62
     5
 63
     7
421
 16777215
 74
     0
 91
        0
 64
     7
 65
   257
 75
     1
175
     1
 42
1.0
 92
        0
 66
     7
 43
1.0
 76
     1
 77
     6
 78
     2
 67
     7
 79
     5
170
     0
171
     0
290
     0
174
     0
 93
       13
 44
0.0
173
     0
291
     1
 45
0.0
  0
VISUALSTYLE
  5
2E
102
{ACAD_REACTORS
330
2A
102
}
102
{ACAD_XDICTIONARY
360
D7
102
}
330
2A
100
AcDbVisualStyle
  2
GouraudWithEdges
 70
     3
 71
     2
 72
     2
 73
     1
 90
        2
 40
0.6
 41
30.0
 62
     5
 63
     7
421
 16777215
 74
     1
 91
        0
 64
     7
 65
   257
 75
     1
175
     1
 42
1.0
 92
        0
 66
   257
 43
1.0
 76
     1
 77
     6
 78
     2
 67
     7
 79
     5
170
     0
171
     0
290
     0
174
     0
 93
       13
 44
0.0
173
     0
291
     1
 45
0.0
  0
VISUALSTYLE
  5
31
102
{ACAD_REACTORS
330
2A
102
}
102
{ACAD_XDICTIONARY
360
DD
102
}
330
2A
100
AcDbVisualStyle
  2
Hidden
 70
     6
 71
     1
 72
     2
 73
     2
 90
        0
 40
0.6
 41
30.0
 62
     5
 63
     7
421
 16777215
 74
     2
 91
        2
 64
     7
 65
   257
 75
     2
175
     1
 42
40.0
 92
        0
 66
   257
 43
1.0
 76
     1
 77
     6
 78
     2
 67
     7
 79
     3
170
     0
171
     0
290
     0
174
     0
 93
        1
 44
0.0
173
     0
291
     0
 45
0.0
  0
VISUALSTYLE
  5
3B
102
{ACAD_REACTORS
330
2A
102
}
102
{ACAD_XDICTIONARY
360
F1
102
}
330
2A
100
AcDbVisualStyle
  2
JitterOff
 70
    20
 71
     2
 72
     2
 73
     0
 90
        0
 40
0.6
 41
30.0
 62
     5
 63
     7
421
 16777215
 74
     1
 91
        4
 64
     7
 65
   257
 75
     1
175
     1
 42
1.0
 92
       10
 66
     7
 43
1.0
 76
     1
 77
     6
 78
     2
 67
     7
 79
     5
170
     0
171
     0
290
     0
174
     0
 93
        1
 44
0.0
173
     0
291
     1
 45
0.0
  0
VISUALSTYLE
  5
38
102
{ACAD_REACTORS
330
2A
102
}
102
{ACAD_XDICTIONARY
360
EB
102
}
330
2A
100
AcDbVisualStyle
  2
Linepattern
 70
    14
 71
     2
 72
     2
 73
     0
 90
        0
 40
0.6
 41
30.0
 62
     5
 63
     7
421
 16777215
 74
     1
 91
        4
 64
     7
 65
   257
 75
     7
175
     7
 42
1.0
 92
        8
 66
     7
 43
1.0
 76
     1
 77
     6
 78
     2
 67
     7
 79
     5
170
     0
171
     0
290
     0
174
     0
 93
        1
 44
0.0
173
     0
291
     1
 45
0.0
  0
VISUALSTYLE
  5
3C
102
{ACAD_REACTORS
330
2A
102
}
102
{ACAD_XDICTIONARY
360
F3
102
}
330
2A
100
AcDbVisualStyle
  2
OverhangOff
 70
    21
 71
     2
 72
     2
 73
     0
 90
        0
 40
0.6
 41
30.0
 62
     5
 63
     7
421
 16777215
 74
     1
 91
        4
 64
     7
 65
   257
 75
     1
175
     1
 42
1.0
 92
        9
 66
     7
 43
1.0
 76
     1
 77
     6
 78
     2
 67
     7
 79
     5
170
     0
171
     0
290
     0
174
     0
 93
        1
 44
0.0
173
     0
291
     1
 45
0.0
  0
VISUALSTYLE
  5
33
102
{ACAD_REACTORS
330
2A
102
}
102
{ACAD_XDICTIONARY
360
E1
102
}
330
2A
100
AcDbVisualStyle
  2
Realistic
 70
     8
 71
     2
 72
     3
 73
     0
 90
        2
 40
0.6
 41
30.0
 62
     5
 63
     7
421
 16777215
 74
     0
 91
        0
 64
     7
 65
   257
 75
     1
175
     1
 42
1.0
 92
        8
 66
   257
 43
1.0
 76
     1
 77
     6
 78
     2
 67
     7
 79
     3
170
     0
171
     0
290
     0
174
     0
 93
       13
 44
0.0
173
     0
291
     0
 45
0.0
  0
VISUALSTYLE
  5
42
102
{ACAD_REACTORS
330
2A
102
}
102
{ACAD_XDICTIONARY
360
FF
102
}
330
2A
100
AcDbVisualStyle
  2
Shaded
 70
    27
 71
     2
 72
     2
 73
     1
 90
        2
 40
0.6
 41
30.0
 62
     5
 63
     7
421
 16777215
 74
     0
 91
        4
 64
     7
 65
   257
 75
     1
175
     1
 42
1.0
 92
        8
 66
   257
 43
1.0
 76
     1
 77
     6
 78
     2
 67
     8
425
  7895160
 79
     3
170
     0
171
     0
290
     0
174
     0
 93
        5
 44
0.0
173
     0
291
     0
 45
0.0
  0
VISUALSTYLE
  5
41
102
{ACAD_REACTORS
330
2A
102
}
102
{ACAD_XDICTIONARY
360
FD
102
}
330
2A
100
AcDbVisualStyle
  2
Shaded with edges
 70
    26
 71
     2
 72
     2
 73
     1
 90
        2
 40
0.6
 41
30.0
 62
     5
 63
     7
421
 16777215
 74
     1
 91
       10
 64
     7
 65
   257
 75
     2
175
     1
 42
1.0
 92
        8
 66
   257
 43
1.0
 76
     1
 77
     6
 78
     2
 67
     7
 79
     3
170
     0
171
     0
290
     0
174
     0
 93
        5
 44
0.0
173
     0
291
     0
 45
0.0
  0
VISUALSTYLE
  5
3E
102
{ACAD_REACTORS
330
2A
102
}
102
{ACAD_XDICTIONARY
360
F7
102
}
330
2A
100
AcDbVisualStyle
  2
Shades of Gray
 70
    23
 71
     2
 72
     2
 73
     3
 90
        0
 40
0.6
 41
30.0
 62
     5
 63
     7
421
 16777215
 74
     2
 91
        2
 64
     7
 65
     7
 75
     1
175
     1
 42
40.0
 92
        8
 66
     7
 43
1.0
 76
     1
 77
     6
 78
     2
 67
     7
 79
     3
170
     0
171
     0
290
     0
174
     0
 93
        1
 44
0.0
173
     0
291
     0
 45
0.0
  0
VISUALSTYLE
  5
3F
102
{ACAD_REACTORS
330
2A
102
}
102
{ACAD_XDICTIONARY
360
F9
102
}
330
2A
100
AcDbVisualStyle
  2
Sketchy
 70
    24
 71
     1
 72
     2
 73
     2
 90
        0
 40
0.6
 41
30.0
 62
     5
 63
     7
421
 16777215
 74
     2
 91
        2
 64
     7
 65
     7
 75
     1
175
     1
 42
40.0
 92
       11
 66
     7
 43
1.0
 76
     1
 77
     6
 78
     2
 67
     7
 79
     6
170
     0
171
     0
290
     0
174
     0
 93
        1
 44
0.0
173
     0
291
     0
 45
0.0
  0
VISUALSTYLE
  5
37
102
{ACAD_REACTORS
330
2A
102
}
102
{ACAD_XDICTIONARY
360
E9
102
}
330
2A
100
AcDbVisualStyle
  2
Thicken
 70
    13
 71
     2
 72
     2
 73
     0
 90
        0
 40
0.6
 41
30.0
 62
     5
 63
     7
421
 16777215
 74
     1
 91
        4
 64
     7
 65
   257
 75
     1
175
     1
 42
1.0
 92
       12
 66
     7
 43
1.0
 76
     1
 77
     6
 78
     2
 67
     7
 79
     5
170
     0
171
     0
290
     0
174
     0
 93
        1
 44
0.0
173
     0
291
     1
 45
0.0
  0
VISUALSTYLE
  5
30
102
{ACAD_REACTORS
330
2A
102
}
102
{ACAD_XDICTIONARY
360
DB
102
}
330
2A
100
AcDbVisualStyle
  2
Wireframe
 70
     5
 71
     0
 72
     2
 73
     0
 90
        0
 40
0.6
 41
30.0
 62
     5
 63
     7
421
 16777215
 74
     1
 91
        4
 64
     7
 65
   257
 75
     1
175
     1
 42
1.0
 92
        0
 66
   257
 43
1.0
 76
     1
 77
     6
 78
     2
 67
     7
 79
     3
170
     0
171
     0
290
     0
174
     0
 93
        1
 44
0.0
173
     0
291
     0
 45
0.0
  0
VISUALSTYLE
  5
40
102
{ACAD_REACTORS
330
2A
102
}
102
{ACAD_XDICTIONARY
360
FB
102
}
330
2A
100
AcDbVisualStyle
  2
X-Ray
 70
    25
 71
     2
 72
     2
 73
     1
 90
        1
 40
0.5
 41
30.0
 62
     5
 63
     7
421
 16777215
 74
     1
 91
        0
 64
     7
 65
   257
 75
     1
175
     1
 42
1.0
 92
        8
 66
     7
 43
1.0
 76
     1
 77
     6
 78
     2
 67
     7
 79
     3
170
     0
171
     0
290
     0
174
     0
 93
       13
 44
0.0
173
     0
291
     0
 45
0.0
  0
DICTIONARYVAR
  5
CF
102
{ACAD_REACTORS
330
CE
102
}
330
CE
100
DictionaryVariables
280
     0
  1
1:1
  0
DICTIONARYVAR
  5
108
102
{ACAD_REACTORS
330
CE
102
}
330
CE
100
DictionaryVariables
280
     0
  1
Standard
  0
DICTIONARYVAR
  5
107
102
{ACAD_REACTORS
330
CE
102
}
330
CE
100
DictionaryVariables
280
     0
  1
Standard
  0
DICTIONARYVAR
  5
D0
102
{ACAD_REACTORS
330
CE
102
}
330
CE
100
DictionaryVariables
280
     0
  1
2
  0
DICTIONARY
  5
104
330
6C
100
AcDbDictionary
280
     1
281
     1
  3
ACAD_XREC_ROUNDTRIP
360
105
  0
DICTIONARY
  5
101
330
6A
100
AcDbDictionary
280
     1
281
     1
  3
ACAD_ROUNDTRIP_2008_TABLESTYLE_CELLSTYLEMAP
360
102
  0
DICTIONARY
  5
D9
330
2F
100
AcDbDictionary
280
     1
281
     1
  3
ACAD_XREC_ROUNDTRIP
360
DA
  0
DICTIONARY
  5
DF
330
32
100
AcDbDictionary
280
     1
281
     1
  3
ACAD_XREC_ROUNDTRIP
360
E0
  0
DICTIONARY
  5
E7
330
36
100
AcDbDictionary
280
     1
281
     1
  3
ACAD_XREC_ROUNDTRIP
360
E8
  0
DICTIONARY
  5
EF
330
3A
100
AcDbDictionary
280
     1
281
     1
  3
ACAD_XREC_ROUNDTRIP
360
F0
  0
DICTIONARY
  5
E3
330
34
100
AcDbDictionary
280
     1
281
     1
  3
ACAD_XREC_ROUNDTRIP
360
E4
  0
DICTIONARY
  5
E5
330
35
100
AcDbDictionary
280
     1
281
     1
  3
ACAD_XREC_ROUNDTRIP
360
E6
  0
DICTIONARY
  5
F5
330
3D
100
AcDbDictionary
280
     1
281
     1
  3
ACAD_XREC_ROUNDTRIP
360
F6
  0
DICTIONARY
  5
ED
330
39
100
AcDbDictionary
280
     1
281
     1
  3
ACAD_XREC_ROUNDTRIP
360
EE
  0
DICTIONARY
  5
D1
330
2B
100
AcDbDictionary
280
     1
281
     1
  3
ACAD_XREC_ROUNDTRIP
360
D2
  0
DICTIONARY
  5
D3
330
2C
100
AcDbDictionary
280
     1
281
     1
  3
ACAD_XREC_ROUNDTRIP
360
D4
  0
DICTIONARY
  5
D5
330
2D
100
AcDbDictionary
280
     1
281
     1
  3
ACAD_XREC_ROUNDTRIP
360
D6
  0
DICTIONARY
  5
D7
330
2E
100
AcDbDictionary
280
     1
281
     1
  3
ACAD_XREC_ROUNDTRIP
360
D8
  0
DICTIONARY
  5
DD
330
31
100
AcDbDictionary
280
     1
281
     1
  3
ACAD_XREC_ROUNDTRIP
360
DE
  0
DICTIONARY
  5
F1
330
3B
100
AcDbDictionary
280
     1
281
     1
  3
ACAD_XREC_ROUNDTRIP
360
F2
  0
DICTIONARY
  5
EB
330
38
100
AcDbDictionary
280
     1
281
     1
  3
ACAD_XREC_ROUNDTRIP
360
EC
  0
DICTIONARY
  5
F3
330
3C
100
AcDbDictionary
280
     1
281
     1
  3
ACAD_XREC_ROUNDTRIP
360
F4
  0
DICTIONARY
  5
E1
330
33
100
AcDbDictionary
280
     1
281
     1
  3
ACAD_XREC_ROUNDTRIP
360
E2
  0
DICTIONARY
  5
FF
330
42
100
AcDbDictionary
280
     1
281
     1
  3
ACAD_XREC_ROUNDTRIP
360
100
  0
DICTIONARY
  5
FD
330
41
100
AcDbDictionary
280
     1
281
     1
  3
ACAD_XREC_ROUNDTRIP
360
FE
  0
DICTIONARY
  5
F7
330
3E
100
AcDbDictionary
280
     1
281
     1
  3
ACAD_XREC_ROUNDTRIP
360
F8
  0
DICTIONARY
  5
F9
330
3F
100
AcDbDictionary
280
     1
281
     1
  3
ACAD_XREC_ROUNDTRIP
360
FA
  0
DICTIONARY
  5
E9
330
37
100
AcDbDictionary
280
     1
281
     1
  3
ACAD_XREC_ROUNDTRIP
360
EA
  0
DICTIONARY
  5
DB
330
30
100
AcDbDictionary
280
     1
281
     1
  3
ACAD_XREC_ROUNDTRIP
360
DC
  0
DICTIONARY
  5
FB
330
40
100
AcDbDictionary
280
     1
281
     1
  3
ACAD_XREC_ROUNDTRIP
360
FC
  0
XRECORD
  5
105
102
{ACAD_REACTORS
330
104
102
}
330
104
100
AcDbXrecord
280
     1
102
ACAD_ROUNDTRIP_2010_MLEADER_STYLE
  0
CELLSTYLEMAP
  5
102
102
{ACAD_REACTORS
330
101
102
}
330
101
100
AcDbCellStyleMap
 90
        3
300
CELLSTYLE
  1
TABLEFORMAT_BEGIN
 90
        5
170
     1
 91
        0
 92
    32768
 62
   257
 93
        1
300
CONTENTFORMAT
  1
CONTENTFORMAT_BEGIN
 90
        0
 91
        0
 92
        4
 93
        0
300

 40
0.0
140
1.0
 94
        5
 62
     0
340
11
144
0.25
309
CONTENTFORMAT_END
171
     1
301
MARGIN
  1
CELLMARGIN_BEGIN
 40
0.06
 40
0.06
 40
0.06
 40
0.06
 40
0.06
 40
0.06
309
CELLMARGIN_END
 94
        6
 95
        1
302
GRIDFORMAT
  1
GRIDFORMAT_BEGIN
 90
        0
 91
        1
 62
     0
 92
       -2
340
14
 93
        0
 40
0.045
309
GRIDFORMAT_END
 95
        2
302
GRIDFORMAT
  1
GRIDFORMAT_BEGIN
 90
        0
 91
        1
 62
     0
 92
       -2
340
14
 93
        0
 40
0.045
309
GRIDFORMAT_END
 95
        4
302
GRIDFORMAT
  1
GRIDFORMAT_BEGIN
 90
        0
 91
        1
 62
     0
 92
       -2
340
14
 93
        0
 40
0.045
309
GRIDFORMAT_END
 95
        8
302
GRIDFORMAT
  1
GRIDFORMAT_BEGIN
 90
        0
 91
        1
 62
     0
 92
       -2
340
14
 93
        0
 40
0.045
309
GRIDFORMAT_END
 95
       16
302
GRIDFORMAT
  1
GRIDFORMAT_BEGIN
 90
        0
 91
        1
 62
     0
 92
       -2
340
14
 93
        0
 40
0.045
309
GRIDFORMAT_END
 95
       32
302
GRIDFORMAT
  1
GRIDFORMAT_BEGIN
 90
        0
 91
        1
 62
     0
 92
       -2
340
14
 93
        0
 40
0.045
309
GRIDFORMAT_END
309
TABLEFORMAT_END
  1
CELLSTYLE_BEGIN
 90
        1
 91
        1
300
_TITLE
309
CELLSTYLE_END
300
CELLSTYLE
  1
TABLEFORMAT_BEGIN
 90
        5
170
     1
 91
        0
 92
        0
 62
   257
 93
        1
300
CONTENTFORMAT
  1
CONTENTFORMAT_BEGIN
 90
        0
 91
        0
 92
        4
 93
        0
300

 40
0.0
140
1.0
 94
        5
 62
     0
340
11
144
0.18
309
CONTENTFORMAT_END
171
     1
301
MARGIN
  1
CELLMARGIN_BEGIN
 40
0.06
 40
0.06
 40
0.06
 40
0.06
 40
0.06
 40
0.06
309
CELLMARGIN_END
 94
        6
 95
        1
302
GRIDFORMAT
  1
GRIDFORMAT_BEGIN
 90
        0
 91
        1
 62
     0
 92
       -2
340
14
 93
        0
 40
0.045
309
GRIDFORMAT_END
 95
        2
302
GRIDFORMAT
  1
GRIDFORMAT_BEGIN
 90
        0
 91
        1
 62
     0
 92
       -2
340
14
 93
        0
 40
0.045
309
GRIDFORMAT_END
 95
        4
302
GRIDFORMAT
  1
GRIDFORMAT_BEGIN
 90
        0
 91
        1
 62
     0
 92
       -2
340
14
 93
        0
 40
0.045
309
GRIDFORMAT_END
 95
        8
302
GRIDFORMAT
  1
GRIDFORMAT_BEGIN
 90
        0
 91
        1
 62
     0
 92
       -2
340
14
 93
        0
 40
0.045
309
GRIDFORMAT_END
 95
       16
302
GRIDFORMAT
  1
GRIDFORMAT_BEGIN
 90
        0
 91
        1
 62
     0
 92
       -2
340
14
 93
        0
 40
0.045
309
GRIDFORMAT_END
 95
       32
302
GRIDFORMAT
  1
GRIDFORMAT_BEGIN
 90
        0
 91
        1
 62
     0
 92
       -2
340
14
 93
        0
 40
0.045
309
GRIDFORMAT_END
309
TABLEFORMAT_END
  1
CELLSTYLE_BEGIN
 90
        2
 91
        1
300
_HEADER
309
CELLSTYLE_END
300
CELLSTYLE
  1
TABLEFORMAT_BEGIN
 90
        5
170
     1
 91
        0
 92
        0
 62
   257
 93
        1
300
CONTENTFORMAT
  1
CONTENTFORMAT_BEGIN
 90
        0
 91
        0
 92
        4
 93
        0
300

 40
0.0
140
1.0
 94
        2
 62
     0
340
11
144
0.18
309
CONTENTFORMAT_END
171
     1
301
MARGIN
  1
CELLMARGIN_BEGIN
 40
0.06
 40
0.06
 40
0.06
 40
0.06
 40
0.06
 40
0.06
309
CELLMARGIN_END
 94
        6
 95
        1
302
GRIDFORMAT
  1
GRIDFORMAT_BEGIN
 90
        0
 91
        1
 62
     0
 92
       -2
340
14
 93
        0
 40
0.045
309
GRIDFORMAT_END
 95
        2
302
GRIDFORMAT
  1
GRIDFORMAT_BEGIN
 90
        0
 91
        1
 62
     0
 92
       -2
340
14
 93
        0
 40
0.045
309
GRIDFORMAT_END
 95
        4
302
GRIDFORMAT
  1
GRIDFORMAT_BEGIN
 90
        0
 91
        1
 62
     0
 92
       -2
340
14
 93
        0
 40
0.045
309
GRIDFORMAT_END
 95
        8
302
GRIDFORMAT
  1
GRIDFORMAT_BEGIN
 90
        0
 91
        1
 62
     0
 92
       -2
340
14
 93
        0
 40
0.045
309
GRIDFORMAT_END
 95
       16
302
GRIDFORMAT
  1
GRIDFORMAT_BEGIN
 90
        0
 91
        1
 62
     0
 92
       -2
340
14
 93
        0
 40
0.045
309
GRIDFORMAT_END
 95
       32
302
GRIDFORMAT
  1
GRIDFORMAT_BEGIN
 90
        0
 91
        1
 62
     0
 92
       -2
340
14
 93
        0
 40
0.045
309
GRIDFORMAT_END
309
TABLEFORMAT_END
  1
CELLSTYLE_BEGIN
 90
        3
 91
        2
300
_DATA
309
CELLSTYLE_END
  0
XRECORD
  5
DA
102
{ACAD_REACTORS
330
D9
102
}
330
D9
100
AcDbXrecord
280
     1
102
RTVSPropertyOp0
 70
     1
102
RTVSPropertyOp1
 70
     1
102
RTVSPropertyOp2
 70
     1
102
RTVSPropertyOp3
 70
     1
102
RTVSPropertyOp4
 70
     1
102
RTVSPropertyOp5
 70
     1
102
RTVSPropertyOp6
 70
     1
102
RTVSPropertyOp7
 70
     1
102
RTVSPropertyOp8
 70
     1
102
RTVSPropertyOp9
 70
     1
102
RTVSPropertyOp10
 70
     1
102
RTVSPropertyOp11
 70
     1
102
RTVSPropertyOp12
 70
     1
102
RTVSPropertyOp13
 70
     1
102
RTVSPropertyOp14
 70
     1
102
RTVSPropertyOp15
 70
     1
102
RTVSPropertyOp16
 70
     1
102
RTVSPropertyOp17
 70
     1
102
RTVSPropertyOp18
 70
     1
102
RTVSPropertyOp19
 70
     1
102
RTVSPropertyOp20
 70
     1
102
RTVSPropertyOp21
 70
     1
102
RTVSPropertyOp22
 70
     1
102
RTVSPropertyOp23
 70
     1
102
RTVSPropertyOp24
 70
     1
102
RTVSPropertyOp25
 70
     1
102
RTVSPropertyOp26
 70
     1
102
RTVSPropertyOp27
 70
     1
102
RTVSPropertyOp28
 70
     1
102
RTVSPropertyOp29
 70
     1
102
RTVSPropertyOp30
 70
     1
102
RTVSPropertyOp31
 70
     1
102
RTVSPropertyOp32
 70
     1
102
RTVSPropertyOp33
 70
     1
102
RTVSPropertyOp34
 70
     1
102
RTVSPropertyOp35
 70
     1
102
RTVSPropertyOp36
 70
     1
102
RTVSPropertyOp37
 70
     1
102
RTVSPropertyOp38
 70
     1
102
RTVSPropertyOp39
 70
     1
102
RTVSPropertyOp40
 70
     1
102
RTVSPropertyOp41
 70
     1
102
RTVSPropertyOp42
 70
     1
102
RTVSPropertyOp43
 70
     1
102
RTVSPropertyOp44
 70
     1
102
RTVSPropertyOp45
 70
     1
102
RTVSPropertyOp46
 70
     1
102
RTVSPropertyOp47
 70
     1
102
RTVSPropertyOp48
 70
     1
102
RTVSPropertyOp49
 70
     1
102
RTVSPropertyOp50
 70
     1
102
RTVSPropertyOp51
 70
     0
102
RTVSPropertyOp52
 70
     0
102
RTVSPropertyOp53
 70
     1
102
RTVSPropertyOp54
 70
     1
102
RTVSPropertyOp55
 70
     1
102
RTVSPropertyOp56
 70
     1
102
RTVSPropertyOp57
 70
     1
102
RTVSPost2010Prop28
280
     1
102
RTVSPost2010PropOp28
 70
     1
102
RTVSPost2010Prop29
280
     1
102
RTVSPost2010PropOp29
 70
     1
102
RTVSPost2010Prop30
280
     0
102
RTVSPost2010PropOp30
 70
     1
102
RTVSPost2010Prop31
280
     0
102
RTVSPost2010PropOp31
 70
     1
102
RTVSPost2010Prop32
280
     0
102
RTVSPost2010PropOp32
 70
     1
102
RTVSPost2010Prop33
280
     0
102
RTVSPost2010PropOp33
 70
     1
102
RTVSPost2010Prop34
280
     0
102
RTVSPost2010PropOp34
 70
     1
102
RTVSPost2010Prop35
280
     0
102
RTVSPost2010PropOp35
 70
     1
102
RTVSPost2010Prop36
280
     0
102
RTVSPost2010PropOp36
 70
     1
102
RTVSPost2010Prop37
 90
       50
102
RTVSPost2010PropOp37
 70
     1
102
RTVSPost2010Prop38
140
0.0
102
RTVSPost2010PropOp38
 70
     1
102
RTVSPost2010Prop39
140
1.0
102
RTVSPost2010PropOp39
 70
     1
102
RTVSPost2010Prop40
 90
        0
102
RTVSPost2010PropOp40
 70
     1
102
RTVSPost2010Prop41ColorIndex
 90
       18
102
RTVSPost2010Prop41ColorRGB
 90
        0
102
RTVSPost2010PropOp41
 70
     1
102
RTVSPost2010Prop42
 90
       50
102
RTVSPost2010PropOp42
 70
     1
102
RTVSPost2010Prop43
 90
        3
102
RTVSPost2010PropOp43
 70
     1
102
RTVSPost2010Prop44ColorIndex
 90
        5
102
RTVSPost2010Prop44ColorRGB
 90
      255
102
RTVSPost2010PropOp44
 70
     1
102
RTVSPost2010Prop45
280
     0
102
RTVSPost2010PropOp45
 70
     1
102
RTVSPost2010Prop46
 90
       50
102
RTVSPost2010PropOp46
 70
     1
102
RTVSPost2010Prop47
 90
       50
102
RTVSPost2010PropOp47
 70
     1
102
RTVSPost2010Prop48
 90
       50
102
RTVSPost2010PropOp48
 70
     1
102
RTVSPost2010Prop49
280
     0
102
RTVSPost2010PropOp49
 70
     1
102
RTVSPost2010Prop50
 90
       50
102
RTVSPost2010PropOp50
 70
     1
102
RTVSPost2010Prop51ColorIndex
 90
      256
102
RTVSPost2010Prop51ColorRGB
 90
-16777216
102
RTVSPost2010PropOp51
 70
     0
102
RTVSPost2010Prop52
140
1.0
102
RTVSPost2010PropOp52
 70
     0
102
RTVSPost2010Prop53
 90
        2
102
RTVSPost2010PropOp53
 70
     1
102
RTVSPost2010Prop54
  1
strokes_ogs.tif
102
RTVSPost2010PropOp54
 70
     1
102
RTVSPost2010Prop55
280
     0
102
RTVSPost2010PropOp55
 70
     1
102
RTVSPost2010Prop56
140
1.0
102
RTVSPost2010PropOp56
 70
     1
102
RTVSPost2010Prop57
140
1.0
102
RTVSPost2010PropOp57
 70
     1
  0
XRECORD
  5
E0
102
{ACAD_REACTORS
330
DF
102
}
330
DF
100
AcDbXrecord
280
     1
102
RTVSPropertyOp0
 70
     1
102
RTVSPropertyOp1
 70
     1
102
RTVSPropertyOp2
 70
     1
102
RTVSPropertyOp3
 70
     1
102
RTVSPropertyOp4
 70
     1
102
RTVSPropertyOp5
 70
     1
102
RTVSPropertyOp6
 70
     1
102
RTVSPropertyOp7
 70
     1
102
RTVSPropertyOp8
 70
     1
102
RTVSPropertyOp9
 70
     1
102
RTVSPropertyOp10
 70
     1
102
RTVSPropertyOp11
 70
     1
102
RTVSPropertyOp12
 70
     1
102
RTVSPropertyOp13
 70
     1
102
RTVSPropertyOp14
 70
     1
102
RTVSPropertyOp15
 70
     1
102
RTVSPropertyOp16
 70
     1
102
RTVSPropertyOp17
 70
     1
102
RTVSPropertyOp18
 70
     1
102
RTVSPropertyOp19
 70
     1
102
RTVSPropertyOp20
 70
     1
102
RTVSPropertyOp21
 70
     1
102
RTVSPropertyOp22
 70
     1
102
RTVSPropertyOp23
 70
     1
102
RTVSPropertyOp24
 70
     1
102
RTVSPropertyOp25
 70
     1
102
RTVSPropertyOp26
 70
     1
102
RTVSPropertyOp27
 70
     1
102
RTVSPropertyOp28
 70
     1
102
RTVSPropertyOp29
 70
     1
102
RTVSPropertyOp30
 70
     1
102
RTVSPropertyOp31
 70
     1
102
RTVSPropertyOp32
 70
     1
102
RTVSPropertyOp33
 70
     1
102
RTVSPropertyOp34
 70
     1
102
RTVSPropertyOp35
 70
     1
102
RTVSPropertyOp36
 70
     1
102
RTVSPropertyOp37
 70
     1
102
RTVSPropertyOp38
 70
     1
102
RTVSPropertyOp39
 70
     1
102
RTVSPropertyOp40
 70
     1
102
RTVSPropertyOp41
 70
     1
102
RTVSPropertyOp42
 70
     1
102
RTVSPropertyOp43
 70
     1
102
RTVSPropertyOp44
 70
     1
102
RTVSPropertyOp45
 70
     1
102
RTVSPropertyOp46
 70
     1
102
RTVSPropertyOp47
 70
     1
102
RTVSPropertyOp48
 70
     1
102
RTVSPropertyOp49
 70
     1
102
RTVSPropertyOp50
 70
     1
102
RTVSPropertyOp51
 70
     0
102
RTVSPropertyOp52
 70
     0
102
RTVSPropertyOp53
 70
     1
102
RTVSPropertyOp54
 70
     1
102
RTVSPropertyOp55
 70
     1
102
RTVSPropertyOp56
 70
     1
102
RTVSPropertyOp57
 70
     1
102
RTVSPost2010Prop28
280
     0
102
RTVSPost2010PropOp28
 70
     1
102
RTVSPost2010Prop29
280
     1
102
RTVSPost2010PropOp29
 70
     1
102
RTVSPost2010Prop30
280
     1
102
RTVSPost2010PropOp30
 70
     1
102
RTVSPost2010Prop31
280
     0
102
RTVSPost2010PropOp31
 70
     1
102
RTVSPost2010Prop32
280
     0
102
RTVSPost2010PropOp32
 70
     1
102
RTVSPost2010Prop33
280
     0
102
RTVSPost2010PropOp33
 70
     1
102
RTVSPost2010Prop34
280
     0
102
RTVSPost2010PropOp34
 70
     1
102
RTVSPost2010Prop35
280
     0
102
RTVSPost2010PropOp35
 70
     1
102
RTVSPost2010Prop36
280
     0
102
RTVSPost2010PropOp36
 70
     1
102
RTVSPost2010Prop37
 90
       50
102
RTVSPost2010PropOp37
 70
     1
102
RTVSPost2010Prop38
140
0.0
102
RTVSPost2010PropOp38
 70
     1
102
RTVSPost2010Prop39
140
1.0
102
RTVSPost2010PropOp39
 70
     1
102
RTVSPost2010Prop40
 90
        0
102
RTVSPost2010PropOp40
 70
     1
102
RTVSPost2010Prop41ColorIndex
 90
       18
102
RTVSPost2010Prop41ColorRGB
 90
        0
102
RTVSPost2010PropOp41
 70
     1
102
RTVSPost2010Prop42
 90
       50
102
RTVSPost2010PropOp42
 70
     1
102
RTVSPost2010Prop43
 90
        3
102
RTVSPost2010PropOp43
 70
     1
102
RTVSPost2010Prop44ColorIndex
 90
        5
102
RTVSPost2010Prop44ColorRGB
 90
      255
102
RTVSPost2010PropOp44
 70
     1
102
RTVSPost2010Prop45
280
     0
102
RTVSPost2010PropOp45
 70
     1
102
RTVSPost2010Prop46
 90
       50
102
RTVSPost2010PropOp46
 70
     1
102
RTVSPost2010Prop47
 90
       50
102
RTVSPost2010PropOp47
 70
     1
102
RTVSPost2010Prop48
 90
       50
102
RTVSPost2010PropOp48
 70
     1
102
RTVSPost2010Prop49
280
     0
102
RTVSPost2010PropOp49
 70
     1
102
RTVSPost2010Prop50
 90
       50
102
RTVSPost2010PropOp50
 70
     1
102
RTVSPost2010Prop51ColorIndex
 90
      256
102
RTVSPost2010Prop51ColorRGB
 90
-16777216
102
RTVSPost2010PropOp51
 70
     0
102
RTVSPost2010Prop52
140
1.0
102
RTVSPost2010PropOp52
 70
     0
102
RTVSPost2010Prop53
 90
        2
102
RTVSPost2010PropOp53
 70
     1
102
RTVSPost2010Prop54
  1
strokes_ogs.tif
102
RTVSPost2010PropOp54
 70
     1
102
RTVSPost2010Prop55
280
     0
102
RTVSPost2010PropOp55
 70
     1
102
RTVSPost2010Prop56
140
1.0
102
RTVSPost2010PropOp56
 70
     1
102
RTVSPost2010Prop57
140
1.0
102
RTVSPost2010PropOp57
 70
     1
  0
XRECORD
  5
E8
102
{ACAD_REACTORS
330
E7
102
}
330
E7
100
AcDbXrecord
280
     1
102
RTVSPropertyOp0
 70
     1
102
RTVSPropertyOp1
 70
     1
102
RTVSPropertyOp2
 70
     1
102
RTVSPropertyOp3
 70
     1
102
RTVSPropertyOp4
 70
     1
102
RTVSPropertyOp5
 70
     1
102
RTVSPropertyOp6
 70
     1
102
RTVSPropertyOp7
 70
     1
102
RTVSPropertyOp8
 70
     1
102
RTVSPropertyOp9
 70
     1
102
RTVSPropertyOp10
 70
     1
102
RTVSPropertyOp11
 70
     1
102
RTVSPropertyOp12
 70
     1
102
RTVSPropertyOp13
 70
     1
102
RTVSPropertyOp14
 70
     1
102
RTVSPropertyOp15
 70
     1
102
RTVSPropertyOp16
 70
     1
102
RTVSPropertyOp17
 70
     1
102
RTVSPropertyOp18
 70
     1
102
RTVSPropertyOp19
 70
     1
102
RTVSPropertyOp20
 70
     1
102
RTVSPropertyOp21
 70
     1
102
RTVSPropertyOp22
 70
     1
102
RTVSPropertyOp23
 70
     1
102
RTVSPropertyOp24
 70
     1
102
RTVSPropertyOp25
 70
     1
102
RTVSPropertyOp26
 70
     1
102
RTVSPropertyOp27
 70
     1
102
RTVSPropertyOp28
 70
     1
102
RTVSPropertyOp29
 70
     1
102
RTVSPropertyOp30
 70
     1
102
RTVSPropertyOp31
 70
     1
102
RTVSPropertyOp32
 70
     1
102
RTVSPropertyOp33
 70
     1
102
RTVSPropertyOp34
 70
     1
102
RTVSPropertyOp35
 70
     1
102
RTVSPropertyOp36
 70
     1
102
RTVSPropertyOp37
 70
     1
102
RTVSPropertyOp38
 70
     1
102
RTVSPropertyOp39
 70
     1
102
RTVSPropertyOp40
 70
     1
102
RTVSPropertyOp41
 70
     1
102
RTVSPropertyOp42
 70
     1
102
RTVSPropertyOp43
 70
     1
102
RTVSPropertyOp44
 70
     1
102
RTVSPropertyOp45
 70
     1
102
RTVSPropertyOp46
 70
     1
102
RTVSPropertyOp47
 70
     1
102
RTVSPropertyOp48
 70
     1
102
RTVSPropertyOp49
 70
     1
102
RTVSPropertyOp50
 70
     1
102
RTVSPropertyOp51
 70
     0
102
RTVSPropertyOp52
 70
     0
102
RTVSPropertyOp53
 70
     1
102
RTVSPropertyOp54
 70
     1
102
RTVSPropertyOp55
 70
     1
102
RTVSPropertyOp56
 70
     1
102
RTVSPropertyOp57
 70
     1
102
RTVSPost2010Prop28
280
     0
102
RTVSPost2010PropOp28
 70
     1
102
RTVSPost2010Prop29
280
     1
102
RTVSPost2010PropOp29
 70
     1
102
RTVSPost2010Prop30
280
     1
102
RTVSPost2010PropOp30
 70
     1
102
RTVSPost2010Prop31
280
     0
102
RTVSPost2010PropOp31
 70
     1
102
RTVSPost2010Prop32
280
     0
102
RTVSPost2010PropOp32
 70
     1
102
RTVSPost2010Prop33
280
     0
102
RTVSPost2010PropOp33
 70
     1
102
RTVSPost2010Prop34
280
     0
102
RTVSPost2010PropOp34
 70
     1
102
RTVSPost2010Prop35
280
     0
102
RTVSPost2010PropOp35
 70
     1
102
RTVSPost2010Prop36
280
     0
102
RTVSPost2010PropOp36
 70
     1
102
RTVSPost2010Prop37
 90
       50
102
RTVSPost2010PropOp37
 70
     1
102
RTVSPost2010Prop38
140
0.0
102
RTVSPost2010PropOp38
 70
     1
102
RTVSPost2010Prop39
140
1.0
102
RTVSPost2010PropOp39
 70
     1
102
RTVSPost2010Prop40
 90
        0
102
RTVSPost2010PropOp40
 70
     1
102
RTVSPost2010Prop41ColorIndex
 90
       18
102
RTVSPost2010Prop41ColorRGB
 90
        0
102
RTVSPost2010PropOp41
 70
     1
102
RTVSPost2010Prop42
 90
       50
102
RTVSPost2010PropOp42
 70
     1
102
RTVSPost2010Prop43
 90
        3
102
RTVSPost2010PropOp43
 70
     1
102
RTVSPost2010Prop44ColorIndex
 90
        5
102
RTVSPost2010Prop44ColorRGB
 90
      255
102
RTVSPost2010PropOp44
 70
     1
102
RTVSPost2010Prop45
280
     0
102
RTVSPost2010PropOp45
 70
     1
102
RTVSPost2010Prop46
 90
       50
102
RTVSPost2010PropOp46
 70
     1
102
RTVSPost2010Prop47
 90
       50
102
RTVSPost2010PropOp47
 70
     1
102
RTVSPost2010Prop48
 90
       50
102
RTVSPost2010PropOp48
 70
     1
102
RTVSPost2010Prop49
280
     0
102
RTVSPost2010PropOp49
 70
     1
102
RTVSPost2010Prop50
 90
       50
102
RTVSPost2010PropOp50
 70
     1
102
RTVSPost2010Prop51ColorIndex
 90
      256
102
RTVSPost2010Prop51ColorRGB
 90
-16777216
102
RTVSPost2010PropOp51
 70
     0
102
RTVSPost2010Prop52
140
1.0
102
RTVSPost2010PropOp52
 70
     0
102
RTVSPost2010Prop53
 90
        2
102
RTVSPost2010PropOp53
 70
     1
102
RTVSPost2010Prop54
  1
strokes_ogs.tif
102
RTVSPost2010PropOp54
 70
     1
102
RTVSPost2010Prop55
280
     0
102
RTVSPost2010PropOp55
 70
     1
102
RTVSPost2010Prop56
140
1.0
102
RTVSPost2010PropOp56
 70
     1
102
RTVSPost2010Prop57
140
1.0
102
RTVSPost2010PropOp57
 70
     1
  0
XRECORD
  5
F0
102
{ACAD_REACTORS
330
EF
102
}
330
EF
100
AcDbXrecord
280
     1
102
RTVSPropertyOp0
 70
     1
102
RTVSPropertyOp1
 70
     1
102
RTVSPropertyOp2
 70
     1
102
RTVSPropertyOp3
 70
     1
102
RTVSPropertyOp4
 70
     1
102
RTVSPropertyOp5
 70
     1
102
RTVSPropertyOp6
 70
     1
102
RTVSPropertyOp7
 70
     1
102
RTVSPropertyOp8
 70
     1
102
RTVSPropertyOp9
 70
     1
102
RTVSPropertyOp10
 70
     1
102
RTVSPropertyOp11
 70
     1
102
RTVSPropertyOp12
 70
     1
102
RTVSPropertyOp13
 70
     1
102
RTVSPropertyOp14
 70
     1
102
RTVSPropertyOp15
 70
     1
102
RTVSPropertyOp16
 70
     1
102
RTVSPropertyOp17
 70
     1
102
RTVSPropertyOp18
 70
     1
102
RTVSPropertyOp19
 70
     1
102
RTVSPropertyOp20
 70
     1
102
RTVSPropertyOp21
 70
     1
102
RTVSPropertyOp22
 70
     1
102
RTVSPropertyOp23
 70
     1
102
RTVSPropertyOp24
 70
     1
102
RTVSPropertyOp25
 70
     1
102
RTVSPropertyOp26
 70
     1
102
RTVSPropertyOp27
 70
     1
102
RTVSPropertyOp28
 70
     1
102
RTVSPropertyOp29
 70
     1
102
RTVSPropertyOp30
 70
     1
102
RTVSPropertyOp31
 70
     1
102
RTVSPropertyOp32
 70
     1
102
RTVSPropertyOp33
 70
     1
102
RTVSPropertyOp34
 70
     1
102
RTVSPropertyOp35
 70
     1
102
RTVSPropertyOp36
 70
     1
102
RTVSPropertyOp37
 70
     1
102
RTVSPropertyOp38
 70
     1
102
RTVSPropertyOp39
 70
     1
102
RTVSPropertyOp40
 70
     1
102
RTVSPropertyOp41
 70
     1
102
RTVSPropertyOp42
 70
     1
102
RTVSPropertyOp43
 70
     1
102
RTVSPropertyOp44
 70
     1
102
RTVSPropertyOp45
 70
     1
102
RTVSPropertyOp46
 70
     1
102
RTVSPropertyOp47
 70
     1
102
RTVSPropertyOp48
 70
     1
102
RTVSPropertyOp49
 70
     1
102
RTVSPropertyOp50
 70
     1
102
RTVSPropertyOp51
 70
     0
102
RTVSPropertyOp52
 70
     0
102
RTVSPropertyOp53
 70
     1
102
RTVSPropertyOp54
 70
     1
102
RTVSPropertyOp55
 70
     1
102
RTVSPropertyOp56
 70
     1
102
RTVSPropertyOp57
 70
     1
102
RTVSPost2010Prop28
280
     0
102
RTVSPost2010PropOp28
 70
     1
102
RTVSPost2010Prop29
280
     1
102
RTVSPost2010PropOp29
 70
     1
102
RTVSPost2010Prop30
280
     1
102
RTVSPost2010PropOp30
 70
     1
102
RTVSPost2010Prop31
280
     0
102
RTVSPost2010PropOp31
 70
     1
102
RTVSPost2010Prop32
280
     0
102
RTVSPost2010PropOp32
 70
     1
102
RTVSPost2010Prop33
280
     0
102
RTVSPost2010PropOp33
 70
     1
102
RTVSPost2010Prop34
280
     0
102
RTVSPost2010PropOp34
 70
     1
102
RTVSPost2010Prop35
280
     0
102
RTVSPost2010PropOp35
 70
     1
102
RTVSPost2010Prop36
280
     0
102
RTVSPost2010PropOp36
 70
     1
102
RTVSPost2010Prop37
 90
       50
102
RTVSPost2010PropOp37
 70
     1
102
RTVSPost2010Prop38
140
0.0
102
RTVSPost2010PropOp38
 70
     1
102
RTVSPost2010Prop39
140
1.0
102
RTVSPost2010PropOp39
 70
     1
102
RTVSPost2010Prop40
 90
        0
102
RTVSPost2010PropOp40
 70
     1
102
RTVSPost2010Prop41ColorIndex
 90
       18
102
RTVSPost2010Prop41ColorRGB
 90
        0
102
RTVSPost2010PropOp41
 70
     1
102
RTVSPost2010Prop42
 90
       50
102
RTVSPost2010PropOp42
 70
     1
102
RTVSPost2010Prop43
 90
        3
102
RTVSPost2010PropOp43
 70
     1
102
RTVSPost2010Prop44ColorIndex
 90
        5
102
RTVSPost2010Prop44ColorRGB
 90
      255
102
RTVSPost2010PropOp44
 70
     1
102
RTVSPost2010Prop45
280
     0
102
RTVSPost2010PropOp45
 70
     1
102
RTVSPost2010Prop46
 90
       50
102
RTVSPost2010PropOp46
 70
     1
102
RTVSPost2010Prop47
 90
       50
102
RTVSPost2010PropOp47
 70
     1
102
RTVSPost2010Prop48
 90
       50
102
RTVSPost2010PropOp48
 70
     1
102
RTVSPost2010Prop49
280
     0
102
RTVSPost2010PropOp49
 70
     1
102
RTVSPost2010Prop50
 90
       50
102
RTVSPost2010PropOp50
 70
     1
102
RTVSPost2010Prop51ColorIndex
 90
      256
102
RTVSPost2010Prop51ColorRGB
 90
-16777216
102
RTVSPost2010PropOp51
 70
     0
102
RTVSPost2010Prop52
140
1.0
102
RTVSPost2010PropOp52
 70
     0
102
RTVSPost2010Prop53
 90
        2
102
RTVSPost2010PropOp53
 70
     1
102
RTVSPost2010Prop54
  1
strokes_ogs.tif
102
RTVSPost2010PropOp54
 70
     1
102
RTVSPost2010Prop55
280
     0
102
RTVSPost2010PropOp55
 70
     1
102
RTVSPost2010Prop56
140
1.0
102
RTVSPost2010PropOp56
 70
     1
102
RTVSPost2010Prop57
140
1.0
102
RTVSPost2010PropOp57
 70
     1
  0
XRECORD
  5
E4
102
{ACAD_REACTORS
330
E3
102
}
330
E3
100
AcDbXrecord
280
     1
102
RTVSPropertyOp0
 70
     1
102
RTVSPropertyOp1
 70
     1
102
RTVSPropertyOp2
 70
     1
102
RTVSPropertyOp3
 70
     1
102
RTVSPropertyOp4
 70
     1
102
RTVSPropertyOp5
 70
     1
102
RTVSPropertyOp6
 70
     1
102
RTVSPropertyOp7
 70
     1
102
RTVSPropertyOp8
 70
     1
102
RTVSPropertyOp9
 70
     1
102
RTVSPropertyOp10
 70
     1
102
RTVSPropertyOp11
 70
     1
102
RTVSPropertyOp12
 70
     1
102
RTVSPropertyOp13
 70
     1
102
RTVSPropertyOp14
 70
     1
102
RTVSPropertyOp15
 70
     1
102
RTVSPropertyOp16
 70
     1
102
RTVSPropertyOp17
 70
     1
102
RTVSPropertyOp18
 70
     1
102
RTVSPropertyOp19
 70
     1
102
RTVSPropertyOp20
 70
     1
102
RTVSPropertyOp21
 70
     1
102
RTVSPropertyOp22
 70
     1
102
RTVSPropertyOp23
 70
     1
102
RTVSPropertyOp24
 70
     1
102
RTVSPropertyOp25
 70
     1
102
RTVSPropertyOp26
 70
     1
102
RTVSPropertyOp27
 70
     1
102
RTVSPropertyOp28
 70
     1
102
RTVSPropertyOp29
 70
     1
102
RTVSPropertyOp30
 70
     1
102
RTVSPropertyOp31
 70
     1
102
RTVSPropertyOp32
 70
     1
102
RTVSPropertyOp33
 70
     1
102
RTVSPropertyOp34
 70
     1
102
RTVSPropertyOp35
 70
     1
102
RTVSPropertyOp36
 70
     1
102
RTVSPropertyOp37
 70
     1
102
RTVSPropertyOp38
 70
     1
102
RTVSPropertyOp39
 70
     1
102
RTVSPropertyOp40
 70
     1
102
RTVSPropertyOp41
 70
     1
102
RTVSPropertyOp42
 70
     1
102
RTVSPropertyOp43
 70
     1
102
RTVSPropertyOp44
 70
     1
102
RTVSPropertyOp45
 70
     1
102
RTVSPropertyOp46
 70
     1
102
RTVSPropertyOp47
 70
     1
102
RTVSPropertyOp48
 70
     1
102
RTVSPropertyOp49
 70
     1
102
RTVSPropertyOp50
 70
     1
102
RTVSPropertyOp51
 70
     0
102
RTVSPropertyOp52
 70
     0
102
RTVSPropertyOp53
 70
     1
102
RTVSPropertyOp54
 70
     1
102
RTVSPropertyOp55
 70
     1
102
RTVSPropertyOp56
 70
     1
102
RTVSPropertyOp57
 70
     1
102
RTVSPost2010Prop28
280
     0
102
RTVSPost2010PropOp28
 70
     1
102
RTVSPost2010Prop29
280
     1
102
RTVSPost2010PropOp29
 70
     1
102
RTVSPost2010Prop30
280
     1
102
RTVSPost2010PropOp30
 70
     1
102
RTVSPost2010Prop31
280
     0
102
RTVSPost2010PropOp31
 70
     1
102
RTVSPost2010Prop32
280
     0
102
RTVSPost2010PropOp32
 70
     1
102
RTVSPost2010Prop33
280
     0
102
RTVSPost2010PropOp33
 70
     1
102
RTVSPost2010Prop34
280
     0
102
RTVSPost2010PropOp34
 70
     1
102
RTVSPost2010Prop35
280
     0
102
RTVSPost2010PropOp35
 70
     1
102
RTVSPost2010Prop36
280
     0
102
RTVSPost2010PropOp36
 70
     1
102
RTVSPost2010Prop37
 90
       50
102
RTVSPost2010PropOp37
 70
     1
102
RTVSPost2010Prop38
140
0.0
102
RTVSPost2010PropOp38
 70
     1
102
RTVSPost2010Prop39
140
1.0
102
RTVSPost2010PropOp39
 70
     1
102
RTVSPost2010Prop40
 90
        0
102
RTVSPost2010PropOp40
 70
     1
102
RTVSPost2010Prop41ColorIndex
 90
       18
102
RTVSPost2010Prop41ColorRGB
 90
        0
102
RTVSPost2010PropOp41
 70
     1
102
RTVSPost2010Prop42
 90
       50
102
RTVSPost2010PropOp42
 70
     1
102
RTVSPost2010Prop43
 90
        3
102
RTVSPost2010PropOp43
 70
     1
102
RTVSPost2010Prop44ColorIndex
 90
        5
102
RTVSPost2010Prop44ColorRGB
 90
      255
102
RTVSPost2010PropOp44
 70
     1
102
RTVSPost2010Prop45
280
     0
102
RTVSPost2010PropOp45
 70
     1
102
RTVSPost2010Prop46
 90
       50
102
RTVSPost2010PropOp46
 70
     1
102
RTVSPost2010Prop47
 90
       50
102
RTVSPost2010PropOp47
 70
     1
102
RTVSPost2010Prop48
 90
       50
102
RTVSPost2010PropOp48
 70
     1
102
RTVSPost2010Prop49
280
     0
102
RTVSPost2010PropOp49
 70
     1
102
RTVSPost2010Prop50
 90
       50
102
RTVSPost2010PropOp50
 70
     1
102
RTVSPost2010Prop51ColorIndex
 90
      256
102
RTVSPost2010Prop51ColorRGB
 90
-16777216
102
RTVSPost2010PropOp51
 70
     0
102
RTVSPost2010Prop52
140
1.0
102
RTVSPost2010PropOp52
 70
     0
102
RTVSPost2010Prop53
 90
        2
102
RTVSPost2010PropOp53
 70
     1
102
RTVSPost2010Prop54
  1
strokes_ogs.tif
102
RTVSPost2010PropOp54
 70
     1
102
RTVSPost2010Prop55
280
     0
102
RTVSPost2010PropOp55
 70
     1
102
RTVSPost2010Prop56
140
1.0
102
RTVSPost2010PropOp56
 70
     1
102
RTVSPost2010Prop57
140
1.0
102
RTVSPost2010PropOp57
 70
     1
  0
XRECORD
  5
E6
102
{ACAD_REACTORS
330
E5
102
}
330
E5
100
AcDbXrecord
280
     1
102
RTVSPropertyOp0
 70
     1
102
RTVSPropertyOp1
 70
     1
102
RTVSPropertyOp2
 70
     1
102
RTVSPropertyOp3
 70
     1
102
RTVSPropertyOp4
 70
     1
102
RTVSPropertyOp5
 70
     1
102
RTVSPropertyOp6
 70
     1
102
RTVSPropertyOp7
 70
     1
102
RTVSPropertyOp8
 70
     1
102
RTVSPropertyOp9
 70
     1
102
RTVSPropertyOp10
 70
     1
102
RTVSPropertyOp11
 70
     1
102
RTVSPropertyOp12
 70
     1
102
RTVSPropertyOp13
 70
     1
102
RTVSPropertyOp14
 70
     1
102
RTVSPropertyOp15
 70
     1
102
RTVSPropertyOp16
 70
     1
102
RTVSPropertyOp17
 70
     1
102
RTVSPropertyOp18
 70
     1
102
RTVSPropertyOp19
 70
     1
102
RTVSPropertyOp20
 70
     1
102
RTVSPropertyOp21
 70
     1
102
RTVSPropertyOp22
 70
     1
102
RTVSPropertyOp23
 70
     1
102
RTVSPropertyOp24
 70
     1
102
RTVSPropertyOp25
 70
     1
102
RTVSPropertyOp26
 70
     1
102
RTVSPropertyOp27
 70
     1
102
RTVSPropertyOp28
 70
     1
102
RTVSPropertyOp29
 70
     1
102
RTVSPropertyOp30
 70
     1
102
RTVSPropertyOp31
 70
     1
102
RTVSPropertyOp32
 70
     1
102
RTVSPropertyOp33
 70
     1
102
RTVSPropertyOp34
 70
     1
102
RTVSPropertyOp35
 70
     1
102
RTVSPropertyOp36
 70
     1
102
RTVSPropertyOp37
 70
     1
102
RTVSPropertyOp38
 70
     1
102
RTVSPropertyOp39
 70
     1
102
RTVSPropertyOp40
 70
     1
102
RTVSPropertyOp41
 70
     1
102
RTVSPropertyOp42
 70
     1
102
RTVSPropertyOp43
 70
     1
102
RTVSPropertyOp44
 70
     1
102
RTVSPropertyOp45
 70
     1
102
RTVSPropertyOp46
 70
     1
102
RTVSPropertyOp47
 70
     1
102
RTVSPropertyOp48
 70
     1
102
RTVSPropertyOp49
 70
     1
102
RTVSPropertyOp50
 70
     1
102
RTVSPropertyOp51
 70
     0
102
RTVSPropertyOp52
 70
     0
102
RTVSPropertyOp53
 70
     1
102
RTVSPropertyOp54
 70
     1
102
RTVSPropertyOp55
 70
     1
102
RTVSPropertyOp56
 70
     1
102
RTVSPropertyOp57
 70
     1
102
RTVSPost2010Prop28
280
     0
102
RTVSPost2010PropOp28
 70
     1
102
RTVSPost2010Prop29
280
     1
102
RTVSPost2010PropOp29
 70
     1
102
RTVSPost2010Prop30
280
     1
102
RTVSPost2010PropOp30
 70
     1
102
RTVSPost2010Prop31
280
     0
102
RTVSPost2010PropOp31
 70
     1
102
RTVSPost2010Prop32
280
     0
102
RTVSPost2010PropOp32
 70
     1
102
RTVSPost2010Prop33
280
     0
102
RTVSPost2010PropOp33
 70
     1
102
RTVSPost2010Prop34
280
     0
102
RTVSPost2010PropOp34
 70
     1
102
RTVSPost2010Prop35
280
     0
102
RTVSPost2010PropOp35
 70
     1
102
RTVSPost2010Prop36
280
     0
102
RTVSPost2010PropOp36
 70
     1
102
RTVSPost2010Prop37
 90
       50
102
RTVSPost2010PropOp37
 70
     1
102
RTVSPost2010Prop38
140
0.0
102
RTVSPost2010PropOp38
 70
     1
102
RTVSPost2010Prop39
140
1.0
102
RTVSPost2010PropOp39
 70
     1
102
RTVSPost2010Prop40
 90
        0
102
RTVSPost2010PropOp40
 70
     1
102
RTVSPost2010Prop41ColorIndex
 90
       18
102
RTVSPost2010Prop41ColorRGB
 90
        0
102
RTVSPost2010PropOp41
 70
     1
102
RTVSPost2010Prop42
 90
       50
102
RTVSPost2010PropOp42
 70
     1
102
RTVSPost2010Prop43
 90
        3
102
RTVSPost2010PropOp43
 70
     1
102
RTVSPost2010Prop44ColorIndex
 90
        5
102
RTVSPost2010Prop44ColorRGB
 90
      255
102
RTVSPost2010PropOp44
 70
     1
102
RTVSPost2010Prop45
280
     0
102
RTVSPost2010PropOp45
 70
     1
102
RTVSPost2010Prop46
 90
       50
102
RTVSPost2010PropOp46
 70
     1
102
RTVSPost2010Prop47
 90
       50
102
RTVSPost2010PropOp47
 70
     1
102
RTVSPost2010Prop48
 90
       50
102
RTVSPost2010PropOp48
 70
     1
102
RTVSPost2010Prop49
280
     0
102
RTVSPost2010PropOp49
 70
     1
102
RTVSPost2010Prop50
 90
       50
102
RTVSPost2010PropOp50
 70
     1
102
RTVSPost2010Prop51ColorIndex
 90
      256
102
RTVSPost2010Prop51ColorRGB
 90
-16777216
102
RTVSPost2010PropOp51
 70
     0
102
RTVSPost2010Prop52
140
1.0
102
RTVSPost2010PropOp52
 70
     0
102
RTVSPost2010Prop53
 90
        2
102
RTVSPost2010PropOp53
 70
     1
102
RTVSPost2010Prop54
  1
strokes_ogs.tif
102
RTVSPost2010PropOp54
 70
     1
102
RTVSPost2010Prop55
280
     0
102
RTVSPost2010PropOp55
 70
     1
102
RTVSPost2010Prop56
140
1.0
102
RTVSPost2010PropOp56
 70
     1
102
RTVSPost2010Prop57
140
1.0
102
RTVSPost2010PropOp57
 70
     1
  0
XRECORD
  5
F6
102
{ACAD_REACTORS
330
F5
102
}
330
F5
100
AcDbXrecord
280
     1
102
RTVSPropertyOp0
 70
     0
102
RTVSPropertyOp1
 70
     0
102
RTVSPropertyOp2
 70
     0
102
RTVSPropertyOp3
 70
     0
102
RTVSPropertyOp4
 70
     0
102
RTVSPropertyOp5
 70
     0
102
RTVSPropertyOp6
 70
     0
102
RTVSPropertyOp7
 70
     0
102
RTVSPropertyOp8
 70
     0
102
RTVSPropertyOp9
 70
     0
102
RTVSPropertyOp10
 70
     0
102
RTVSPropertyOp11
 70
     0
102
RTVSPropertyOp12
 70
     0
102
RTVSPropertyOp13
 70
     0
102
RTVSPropertyOp14
 70
     2
102
RTVSPropertyOp15
 70
     0
102
RTVSPropertyOp16
 70
     0
102
RTVSPropertyOp17
 70
     0
102
RTVSPropertyOp18
 70
     0
102
RTVSPropertyOp19
 70
     0
102
RTVSPropertyOp20
 70
     0
102
RTVSPropertyOp21
 70
     0
102
RTVSPropertyOp22
 70
     0
102
RTVSPropertyOp23
 70
     0
102
RTVSPropertyOp24
 70
     0
102
RTVSPropertyOp25
 70
     0
102
RTVSPropertyOp26
 70
     0
102
RTVSPropertyOp27
 70
     0
102
RTVSPropertyOp28
 70
     0
102
RTVSPropertyOp29
 70
     0
102
RTVSPropertyOp30
 70
     0
102
RTVSPropertyOp31
 70
     0
102
RTVSPropertyOp32
 70
     0
102
RTVSPropertyOp33
 70
     0
102
RTVSPropertyOp34
 70
     0
102
RTVSPropertyOp35
 70
     0
102
RTVSPropertyOp36
 70
     0
102
RTVSPropertyOp37
 70
     0
102
RTVSPropertyOp38
 70
     0
102
RTVSPropertyOp39
 70
     0
102
RTVSPropertyOp40
 70
     0
102
RTVSPropertyOp41
 70
     0
102
RTVSPropertyOp42
 70
     0
102
RTVSPropertyOp43
 70
     0
102
RTVSPropertyOp44
 70
     0
102
RTVSPropertyOp45
 70
     0
102
RTVSPropertyOp46
 70
     0
102
RTVSPropertyOp47
 70
     0
102
RTVSPropertyOp48
 70
     0
102
RTVSPropertyOp49
 70
     0
102
RTVSPropertyOp50
 70
     0
102
RTVSPropertyOp51
 70
     0
102
RTVSPropertyOp52
 70
     0
102
RTVSPropertyOp53
 70
     0
102
RTVSPropertyOp54
 70
     0
102
RTVSPropertyOp55
 70
     0
102
RTVSPropertyOp56
 70
     0
102
RTVSPropertyOp57
 70
     0
102
RTVSPost2010Prop28
280
     0
102
RTVSPost2010PropOp28
 70
     0
102
RTVSPost2010Prop29
280
     1
102
RTVSPost2010PropOp29
 70
     0
102
RTVSPost2010Prop30
280
     1
102
RTVSPost2010PropOp30
 70
     0
102
RTVSPost2010Prop31
280
     0
102
RTVSPost2010PropOp31
 70
     0
102
RTVSPost2010Prop32
280
     0
102
RTVSPost2010PropOp32
 70
     0
102
RTVSPost2010Prop33
280
     0
102
RTVSPost2010PropOp33
 70
     0
102
RTVSPost2010Prop34
280
     0
102
RTVSPost2010PropOp34
 70
     0
102
RTVSPost2010Prop35
280
     0
102
RTVSPost2010PropOp35
 70
     0
102
RTVSPost2010Prop36
280
     0
102
RTVSPost2010PropOp36
 70
     0
102
RTVSPost2010Prop37
 90
       50
102
RTVSPost2010PropOp37
 70
     0
102
RTVSPost2010Prop38
140
0.0
102
RTVSPost2010PropOp38
 70
     0
102
RTVSPost2010Prop39
140
1.0
102
RTVSPost2010PropOp39
 70
     0
102
RTVSPost2010Prop40
 90
        0
102
RTVSPost2010PropOp40
 70
     0
102
RTVSPost2010Prop41ColorIndex
 90
       18
102
RTVSPost2010Prop41ColorRGB
 90
        0
102
RTVSPost2010PropOp41
 70
     0
102
RTVSPost2010Prop42
 90
       50
102
RTVSPost2010PropOp42
 70
     0
102
RTVSPost2010Prop43
 90
        3
102
RTVSPost2010PropOp43
 70
     0
102
RTVSPost2010Prop44ColorIndex
 90
        5
102
RTVSPost2010Prop44ColorRGB
 90
      255
102
RTVSPost2010PropOp44
 70
     0
102
RTVSPost2010Prop45
280
     0
102
RTVSPost2010PropOp45
 70
     0
102
RTVSPost2010Prop46
 90
       50
102
RTVSPost2010PropOp46
 70
     0
102
RTVSPost2010Prop47
 90
       50
102
RTVSPost2010PropOp47
 70
     0
102
RTVSPost2010Prop48
 90
       50
102
RTVSPost2010PropOp48
 70
     0
102
RTVSPost2010Prop49
280
     0
102
RTVSPost2010PropOp49
 70
     0
102
RTVSPost2010Prop50
 90
       50
102
RTVSPost2010PropOp50
 70
     0
102
RTVSPost2010Prop51ColorIndex
 90
      256
102
RTVSPost2010Prop51ColorRGB
 90
-16777216
102
RTVSPost2010PropOp51
 70
     0
102
RTVSPost2010Prop52
140
1.0
102
RTVSPost2010PropOp52
 70
     0
102
RTVSPost2010Prop53
 90
        2
102
RTVSPost2010PropOp53
 70
     0
102
RTVSPost2010Prop54
  1
strokes_ogs.tif
102
RTVSPost2010PropOp54
 70
     0
102
RTVSPost2010Prop55
280
     0
102
RTVSPost2010PropOp55
 70
     0
102
RTVSPost2010Prop56
140
1.0
102
RTVSPost2010PropOp56
 70
     0
102
RTVSPost2010Prop57
140
1.0
102
RTVSPost2010PropOp57
 70
     0
  0
XRECORD
  5
EE
102
{ACAD_REACTORS
330
ED
102
}
330
ED
100
AcDbXrecord
280
     1
102
RTVSPropertyOp0
 70
     1
102
RTVSPropertyOp1
 70
     1
102
RTVSPropertyOp2
 70
     1
102
RTVSPropertyOp3
 70
     1
102
RTVSPropertyOp4
 70
     1
102
RTVSPropertyOp5
 70
     1
102
RTVSPropertyOp6
 70
     1
102
RTVSPropertyOp7
 70
     1
102
RTVSPropertyOp8
 70
     1
102
RTVSPropertyOp9
 70
     1
102
RTVSPropertyOp10
 70
     1
102
RTVSPropertyOp11
 70
     1
102
RTVSPropertyOp12
 70
     1
102
RTVSPropertyOp13
 70
     1
102
RTVSPropertyOp14
 70
     1
102
RTVSPropertyOp15
 70
     1
102
RTVSPropertyOp16
 70
     1
102
RTVSPropertyOp17
 70
     1
102
RTVSPropertyOp18
 70
     1
102
RTVSPropertyOp19
 70
     1
102
RTVSPropertyOp20
 70
     1
102
RTVSPropertyOp21
 70
     1
102
RTVSPropertyOp22
 70
     1
102
RTVSPropertyOp23
 70
     1
102
RTVSPropertyOp24
 70
     1
102
RTVSPropertyOp25
 70
     1
102
RTVSPropertyOp26
 70
     1
102
RTVSPropertyOp27
 70
     1
102
RTVSPropertyOp28
 70
     1
102
RTVSPropertyOp29
 70
     1
102
RTVSPropertyOp30
 70
     1
102
RTVSPropertyOp31
 70
     1
102
RTVSPropertyOp32
 70
     1
102
RTVSPropertyOp33
 70
     1
102
RTVSPropertyOp34
 70
     1
102
RTVSPropertyOp35
 70
     1
102
RTVSPropertyOp36
 70
     1
102
RTVSPropertyOp37
 70
     1
102
RTVSPropertyOp38
 70
     1
102
RTVSPropertyOp39
 70
     1
102
RTVSPropertyOp40
 70
     1
102
RTVSPropertyOp41
 70
     1
102
RTVSPropertyOp42
 70
     1
102
RTVSPropertyOp43
 70
     1
102
RTVSPropertyOp44
 70
     1
102
RTVSPropertyOp45
 70
     1
102
RTVSPropertyOp46
 70
     1
102
RTVSPropertyOp47
 70
     1
102
RTVSPropertyOp48
 70
     1
102
RTVSPropertyOp49
 70
     1
102
RTVSPropertyOp50
 70
     1
102
RTVSPropertyOp51
 70
     0
102
RTVSPropertyOp52
 70
     0
102
RTVSPropertyOp53
 70
     1
102
RTVSPropertyOp54
 70
     1
102
RTVSPropertyOp55
 70
     1
102
RTVSPropertyOp56
 70
     1
102
RTVSPropertyOp57
 70
     1
102
RTVSPost2010Prop28
280
     0
102
RTVSPost2010PropOp28
 70
     1
102
RTVSPost2010Prop29
280
     1
102
RTVSPost2010PropOp29
 70
     1
102
RTVSPost2010Prop30
280
     1
102
RTVSPost2010PropOp30
 70
     1
102
RTVSPost2010Prop31
280
     0
102
RTVSPost2010PropOp31
 70
     1
102
RTVSPost2010Prop32
280
     0
102
RTVSPost2010PropOp32
 70
     1
102
RTVSPost2010Prop33
280
     0
102
RTVSPost2010PropOp33
 70
     1
102
RTVSPost2010Prop34
280
     0
102
RTVSPost2010PropOp34
 70
     1
102
RTVSPost2010Prop35
280
     0
102
RTVSPost2010PropOp35
 70
     1
102
RTVSPost2010Prop36
280
     0
102
RTVSPost2010PropOp36
 70
     1
102
RTVSPost2010Prop37
 90
       50
102
RTVSPost2010PropOp37
 70
     1
102
RTVSPost2010Prop38
140
0.0
102
RTVSPost2010PropOp38
 70
     1
102
RTVSPost2010Prop39
140
1.0
102
RTVSPost2010PropOp39
 70
     1
102
RTVSPost2010Prop40
 90
        0
102
RTVSPost2010PropOp40
 70
     1
102
RTVSPost2010Prop41ColorIndex
 90
       18
102
RTVSPost2010Prop41ColorRGB
 90
        0
102
RTVSPost2010PropOp41
 70
     1
102
RTVSPost2010Prop42
 90
       50
102
RTVSPost2010PropOp42
 70
     1
102
RTVSPost2010Prop43
 90
        3
102
RTVSPost2010PropOp43
 70
     1
102
RTVSPost2010Prop44ColorIndex
 90
        5
102
RTVSPost2010Prop44ColorRGB
 90
      255
102
RTVSPost2010PropOp44
 70
     1
102
RTVSPost2010Prop45
280
     0
102
RTVSPost2010PropOp45
 70
     1
102
RTVSPost2010Prop46
 90
       50
102
RTVSPost2010PropOp46
 70
     1
102
RTVSPost2010Prop47
 90
       50
102
RTVSPost2010PropOp47
 70
     1
102
RTVSPost2010Prop48
 90
       50
102
RTVSPost2010PropOp48
 70
     1
102
RTVSPost2010Prop49
280
     0
102
RTVSPost2010PropOp49
 70
     1
102
RTVSPost2010Prop50
 90
       50
102
RTVSPost2010PropOp50
 70
     1
102
RTVSPost2010Prop51ColorIndex
 90
      256
102
RTVSPost2010Prop51ColorRGB
 90
-16777216
102
RTVSPost2010PropOp51
 70
     0
102
RTVSPost2010Prop52
140
1.0
102
RTVSPost2010PropOp52
 70
     0
102
RTVSPost2010Prop53
 90
        2
102
RTVSPost2010PropOp53
 70
     1
102
RTVSPost2010Prop54
  1
strokes_ogs.tif
102
RTVSPost2010PropOp54
 70
     1
102
RTVSPost2010Prop55
280
     0
102
RTVSPost2010PropOp55
 70
     1
102
RTVSPost2010Prop56
140
1.0
102
RTVSPost2010PropOp56
 70
     1
102
RTVSPost2010Prop57
140
1.0
102
RTVSPost2010PropOp57
 70
     1
  0
XRECORD
  5
D2
102
{ACAD_REACTORS
330
D1
102
}
330
D1
100
AcDbXrecord
280
     1
102
RTVSPropertyOp0
 70
     1
102
RTVSPropertyOp1
 70
     1
102
RTVSPropertyOp2
 70
     1
102
RTVSPropertyOp3
 70
     1
102
RTVSPropertyOp4
 70
     1
102
RTVSPropertyOp5
 70
     1
102
RTVSPropertyOp6
 70
     1
102
RTVSPropertyOp7
 70
     1
102
RTVSPropertyOp8
 70
     1
102
RTVSPropertyOp9
 70
     1
102
RTVSPropertyOp10
 70
     1
102
RTVSPropertyOp11
 70
     1
102
RTVSPropertyOp12
 70
     1
102
RTVSPropertyOp13
 70
     1
102
RTVSPropertyOp14
 70
     1
102
RTVSPropertyOp15
 70
     1
102
RTVSPropertyOp16
 70
     1
102
RTVSPropertyOp17
 70
     1
102
RTVSPropertyOp18
 70
     1
102
RTVSPropertyOp19
 70
     1
102
RTVSPropertyOp20
 70
     1
102
RTVSPropertyOp21
 70
     1
102
RTVSPropertyOp22
 70
     1
102
RTVSPropertyOp23
 70
     1
102
RTVSPropertyOp24
 70
     1
102
RTVSPropertyOp25
 70
     1
102
RTVSPropertyOp26
 70
     1
102
RTVSPropertyOp27
 70
     1
102
RTVSPropertyOp28
 70
     1
102
RTVSPropertyOp29
 70
     1
102
RTVSPropertyOp30
 70
     1
102
RTVSPropertyOp31
 70
     1
102
RTVSPropertyOp32
 70
     1
102
RTVSPropertyOp33
 70
     1
102
RTVSPropertyOp34
 70
     1
102
RTVSPropertyOp35
 70
     1
102
RTVSPropertyOp36
 70
     1
102
RTVSPropertyOp37
 70
     1
102
RTVSPropertyOp38
 70
     1
102
RTVSPropertyOp39
 70
     1
102
RTVSPropertyOp40
 70
     1
102
RTVSPropertyOp41
 70
     1
102
RTVSPropertyOp42
 70
     1
102
RTVSPropertyOp43
 70
     1
102
RTVSPropertyOp44
 70
     1
102
RTVSPropertyOp45
 70
     1
102
RTVSPropertyOp46
 70
     1
102
RTVSPropertyOp47
 70
     1
102
RTVSPropertyOp48
 70
     1
102
RTVSPropertyOp49
 70
     1
102
RTVSPropertyOp50
 70
     1
102
RTVSPropertyOp51
 70
     0
102
RTVSPropertyOp52
 70
     0
102
RTVSPropertyOp53
 70
     1
102
RTVSPropertyOp54
 70
     1
102
RTVSPropertyOp55
 70
     1
102
RTVSPropertyOp56
 70
     1
102
RTVSPropertyOp57
 70
     1
102
RTVSPost2010Prop28
280
     0
102
RTVSPost2010PropOp28
 70
     1
102
RTVSPost2010Prop29
280
     1
102
RTVSPost2010PropOp29
 70
     1
102
RTVSPost2010Prop30
280
     1
102
RTVSPost2010PropOp30
 70
     1
102
RTVSPost2010Prop31
280
     0
102
RTVSPost2010PropOp31
 70
     1
102
RTVSPost2010Prop32
280
     0
102
RTVSPost2010PropOp32
 70
     1
102
RTVSPost2010Prop33
280
     0
102
RTVSPost2010PropOp33
 70
     1
102
RTVSPost2010Prop34
280
     0
102
RTVSPost2010PropOp34
 70
     1
102
RTVSPost2010Prop35
280
     0
102
RTVSPost2010PropOp35
 70
     1
102
RTVSPost2010Prop36
280
     0
102
RTVSPost2010PropOp36
 70
     1
102
RTVSPost2010Prop37
 90
       50
102
RTVSPost2010PropOp37
 70
     1
102
RTVSPost2010Prop38
140
0.0
102
RTVSPost2010PropOp38
 70
     1
102
RTVSPost2010Prop39
140
1.0
102
RTVSPost2010PropOp39
 70
     1
102
RTVSPost2010Prop40
 90
        0
102
RTVSPost2010PropOp40
 70
     1
102
RTVSPost2010Prop41ColorIndex
 90
       18
102
RTVSPost2010Prop41ColorRGB
 90
        0
102
RTVSPost2010PropOp41
 70
     1
102
RTVSPost2010Prop42
 90
       50
102
RTVSPost2010PropOp42
 70
     1
102
RTVSPost2010Prop43
 90
        3
102
RTVSPost2010PropOp43
 70
     1
102
RTVSPost2010Prop44ColorIndex
 90
        5
102
RTVSPost2010Prop44ColorRGB
 90
      255
102
RTVSPost2010PropOp44
 70
     1
102
RTVSPost2010Prop45
280
     0
102
RTVSPost2010PropOp45
 70
     1
102
RTVSPost2010Prop46
 90
       50
102
RTVSPost2010PropOp46
 70
     1
102
RTVSPost2010Prop47
 90
       50
102
RTVSPost2010PropOp47
 70
     1
102
RTVSPost2010Prop48
 90
       50
102
RTVSPost2010PropOp48
 70
     1
102
RTVSPost2010Prop49
280
     0
102
RTVSPost2010PropOp49
 70
     1
102
RTVSPost2010Prop50
 90
       50
102
RTVSPost2010PropOp50
 70
     1
102
RTVSPost2010Prop51ColorIndex
 90
      256
102
RTVSPost2010Prop51ColorRGB
 90
-16777216
102
RTVSPost2010PropOp51
 70
     0
102
RTVSPost2010Prop52
140
1.0
102
RTVSPost2010PropOp52
 70
     0
102
RTVSPost2010Prop53
 90
        2
102
RTVSPost2010PropOp53
 70
     1
102
RTVSPost2010Prop54
  1
strokes_ogs.tif
102
RTVSPost2010PropOp54
 70
     1
102
RTVSPost2010Prop55
280
     0
102
RTVSPost2010PropOp55
 70
     1
102
RTVSPost2010Prop56
140
1.0
102
RTVSPost2010PropOp56
 70
     1
102
RTVSPost2010Prop57
140
1.0
102
RTVSPost2010PropOp57
 70
     1
  0
XRECORD
  5
D4
102
{ACAD_REACTORS
330
D3
102
}
330
D3
100
AcDbXrecord
280
     1
102
RTVSPropertyOp0
 70
     1
102
RTVSPropertyOp1
 70
     1
102
RTVSPropertyOp2
 70
     1
102
RTVSPropertyOp3
 70
     1
102
RTVSPropertyOp4
 70
     1
102
RTVSPropertyOp5
 70
     1
102
RTVSPropertyOp6
 70
     1
102
RTVSPropertyOp7
 70
     1
102
RTVSPropertyOp8
 70
     1
102
RTVSPropertyOp9
 70
     1
102
RTVSPropertyOp10
 70
     1
102
RTVSPropertyOp11
 70
     1
102
RTVSPropertyOp12
 70
     1
102
RTVSPropertyOp13
 70
     1
102
RTVSPropertyOp14
 70
     1
102
RTVSPropertyOp15
 70
     1
102
RTVSPropertyOp16
 70
     1
102
RTVSPropertyOp17
 70
     1
102
RTVSPropertyOp18
 70
     1
102
RTVSPropertyOp19
 70
     1
102
RTVSPropertyOp20
 70
     1
102
RTVSPropertyOp21
 70
     1
102
RTVSPropertyOp22
 70
     1
102
RTVSPropertyOp23
 70
     1
102
RTVSPropertyOp24
 70
     1
102
RTVSPropertyOp25
 70
     1
102
RTVSPropertyOp26
 70
     1
102
RTVSPropertyOp27
 70
     1
102
RTVSPropertyOp28
 70
     1
102
RTVSPropertyOp29
 70
     1
102
RTVSPropertyOp30
 70
     1
102
RTVSPropertyOp31
 70
     1
102
RTVSPropertyOp32
 70
     1
102
RTVSPropertyOp33
 70
     1
102
RTVSPropertyOp34
 70
     1
102
RTVSPropertyOp35
 70
     1
102
RTVSPropertyOp36
 70
     1
102
RTVSPropertyOp37
 70
     1
102
RTVSPropertyOp38
 70
     1
102
RTVSPropertyOp39
 70
     1
102
RTVSPropertyOp40
 70
     1
102
RTVSPropertyOp41
 70
     1
102
RTVSPropertyOp42
 70
     1
102
RTVSPropertyOp43
 70
     1
102
RTVSPropertyOp44
 70
     1
102
RTVSPropertyOp45
 70
     1
102
RTVSPropertyOp46
 70
     1
102
RTVSPropertyOp47
 70
     1
102
RTVSPropertyOp48
 70
     1
102
RTVSPropertyOp49
 70
     1
102
RTVSPropertyOp50
 70
     1
102
RTVSPropertyOp51
 70
     0
102
RTVSPropertyOp52
 70
     0
102
RTVSPropertyOp53
 70
     1
102
RTVSPropertyOp54
 70
     1
102
RTVSPropertyOp55
 70
     1
102
RTVSPropertyOp56
 70
     1
102
RTVSPropertyOp57
 70
     1
102
RTVSPost2010Prop28
280
     0
102
RTVSPost2010PropOp28
 70
     1
102
RTVSPost2010Prop29
280
     1
102
RTVSPost2010PropOp29
 70
     1
102
RTVSPost2010Prop30
280
     1
102
RTVSPost2010PropOp30
 70
     1
102
RTVSPost2010Prop31
280
     0
102
RTVSPost2010PropOp31
 70
     1
102
RTVSPost2010Prop32
280
     0
102
RTVSPost2010PropOp32
 70
     1
102
RTVSPost2010Prop33
280
     0
102
RTVSPost2010PropOp33
 70
     1
102
RTVSPost2010Prop34
280
     0
102
RTVSPost2010PropOp34
 70
     1
102
RTVSPost2010Prop35
280
     0
102
RTVSPost2010PropOp35
 70
     1
102
RTVSPost2010Prop36
280
     0
102
RTVSPost2010PropOp36
 70
     1
102
RTVSPost2010Prop37
 90
       50
102
RTVSPost2010PropOp37
 70
     1
102
RTVSPost2010Prop38
140
0.0
102
RTVSPost2010PropOp38
 70
     1
102
RTVSPost2010Prop39
140
1.0
102
RTVSPost2010PropOp39
 70
     1
102
RTVSPost2010Prop40
 90
        0
102
RTVSPost2010PropOp40
 70
     1
102
RTVSPost2010Prop41ColorIndex
 90
       18
102
RTVSPost2010Prop41ColorRGB
 90
        0
102
RTVSPost2010PropOp41
 70
     1
102
RTVSPost2010Prop42
 90
       50
102
RTVSPost2010PropOp42
 70
     1
102
RTVSPost2010Prop43
 90
        3
102
RTVSPost2010PropOp43
 70
     1
102
RTVSPost2010Prop44ColorIndex
 90
        5
102
RTVSPost2010Prop44ColorRGB
 90
      255
102
RTVSPost2010PropOp44
 70
     1
102
RTVSPost2010Prop45
280
     0
102
RTVSPost2010PropOp45
 70
     1
102
RTVSPost2010Prop46
 90
       50
102
RTVSPost2010PropOp46
 70
     1
102
RTVSPost2010Prop47
 90
       50
102
RTVSPost2010PropOp47
 70
     1
102
RTVSPost2010Prop48
 90
       50
102
RTVSPost2010PropOp48
 70
     1
102
RTVSPost2010Prop49
280
     0
102
RTVSPost2010PropOp49
 70
     1
102
RTVSPost2010Prop50
 90
       50
102
RTVSPost2010PropOp50
 70
     1
102
RTVSPost2010Prop51ColorIndex
 90
      256
102
RTVSPost2010Prop51ColorRGB
 90
-16777216
102
RTVSPost2010PropOp51
 70
     0
102
RTVSPost2010Prop52
140
1.0
102
RTVSPost2010PropOp52
 70
     0
102
RTVSPost2010Prop53
 90
        2
102
RTVSPost2010PropOp53
 70
     1
102
RTVSPost2010Prop54
  1
strokes_ogs.tif
102
RTVSPost2010PropOp54
 70
     1
102
RTVSPost2010Prop55
280
     0
102
RTVSPost2010PropOp55
 70
     1
102
RTVSPost2010Prop56
140
1.0
102
RTVSPost2010PropOp56
 70
     1
102
RTVSPost2010Prop57
140
1.0
102
RTVSPost2010PropOp57
 70
     1
  0
XRECORD
  5
D6
102
{ACAD_REACTORS
330
D5
102
}
330
D5
100
AcDbXrecord
280
     1
102
RTVSPropertyOp0
 70
     1
102
RTVSPropertyOp1
 70
     1
102
RTVSPropertyOp2
 70
     1
102
RTVSPropertyOp3
 70
     1
102
RTVSPropertyOp4
 70
     1
102
RTVSPropertyOp5
 70
     1
102
RTVSPropertyOp6
 70
     1
102
RTVSPropertyOp7
 70
     1
102
RTVSPropertyOp8
 70
     1
102
RTVSPropertyOp9
 70
     1
102
RTVSPropertyOp10
 70
     1
102
RTVSPropertyOp11
 70
     1
102
RTVSPropertyOp12
 70
     1
102
RTVSPropertyOp13
 70
     1
102
RTVSPropertyOp14
 70
     1
102
RTVSPropertyOp15
 70
     1
102
RTVSPropertyOp16
 70
     1
102
RTVSPropertyOp17
 70
     1
102
RTVSPropertyOp18
 70
     1
102
RTVSPropertyOp19
 70
     1
102
RTVSPropertyOp20
 70
     1
102
RTVSPropertyOp21
 70
     1
102
RTVSPropertyOp22
 70
     1
102
RTVSPropertyOp23
 70
     1
102
RTVSPropertyOp24
 70
     1
102
RTVSPropertyOp25
 70
     1
102
RTVSPropertyOp26
 70
     1
102
RTVSPropertyOp27
 70
     1
102
RTVSPropertyOp28
 70
     1
102
RTVSPropertyOp29
 70
     1
102
RTVSPropertyOp30
 70
     1
102
RTVSPropertyOp31
 70
     1
102
RTVSPropertyOp32
 70
     1
102
RTVSPropertyOp33
 70
     1
102
RTVSPropertyOp34
 70
     1
102
RTVSPropertyOp35
 70
     1
102
RTVSPropertyOp36
 70
     1
102
RTVSPropertyOp37
 70
     1
102
RTVSPropertyOp38
 70
     1
102
RTVSPropertyOp39
 70
     1
102
RTVSPropertyOp40
 70
     1
102
RTVSPropertyOp41
 70
     1
102
RTVSPropertyOp42
 70
     1
102
RTVSPropertyOp43
 70
     1
102
RTVSPropertyOp44
 70
     1
102
RTVSPropertyOp45
 70
     1
102
RTVSPropertyOp46
 70
     1
102
RTVSPropertyOp47
 70
     1
102
RTVSPropertyOp48
 70
     1
102
RTVSPropertyOp49
 70
     1
102
RTVSPropertyOp50
 70
     1
102
RTVSPropertyOp51
 70
     0
102
RTVSPropertyOp52
 70
     0
102
RTVSPropertyOp53
 70
     1
102
RTVSPropertyOp54
 70
     1
102
RTVSPropertyOp55
 70
     1
102
RTVSPropertyOp56
 70
     1
102
RTVSPropertyOp57
 70
     1
102
RTVSPost2010Prop28
280
     0
102
RTVSPost2010PropOp28
 70
     1
102
RTVSPost2010Prop29
280
     1
102
RTVSPost2010PropOp29
 70
     1
102
RTVSPost2010Prop30
280
     1
102
RTVSPost2010PropOp30
 70
     1
102
RTVSPost2010Prop31
280
     0
102
RTVSPost2010PropOp31
 70
     1
102
RTVSPost2010Prop32
280
     0
102
RTVSPost2010PropOp32
 70
     1
102
RTVSPost2010Prop33
280
     0
102
RTVSPost2010PropOp33
 70
     1
102
RTVSPost2010Prop34
280
     0
102
RTVSPost2010PropOp34
 70
     1
102
RTVSPost2010Prop35
280
     0
102
RTVSPost2010PropOp35
 70
     1
102
RTVSPost2010Prop36
280
     0
102
RTVSPost2010PropOp36
 70
     1
102
RTVSPost2010Prop37
 90
       50
102
RTVSPost2010PropOp37
 70
     1
102
RTVSPost2010Prop38
140
0.0
102
RTVSPost2010PropOp38
 70
     1
102
RTVSPost2010Prop39
140
1.0
102
RTVSPost2010PropOp39
 70
     1
102
RTVSPost2010Prop40
 90
        0
102
RTVSPost2010PropOp40
 70
     1
102
RTVSPost2010Prop41ColorIndex
 90
       18
102
RTVSPost2010Prop41ColorRGB
 90
        0
102
RTVSPost2010PropOp41
 70
     1
102
RTVSPost2010Prop42
 90
       50
102
RTVSPost2010PropOp42
 70
     1
102
RTVSPost2010Prop43
 90
        3
102
RTVSPost2010PropOp43
 70
     1
102
RTVSPost2010Prop44ColorIndex
 90
        5
102
RTVSPost2010Prop44ColorRGB
 90
      255
102
RTVSPost2010PropOp44
 70
     1
102
RTVSPost2010Prop45
280
     0
102
RTVSPost2010PropOp45
 70
     1
102
RTVSPost2010Prop46
 90
       50
102
RTVSPost2010PropOp46
 70
     1
102
RTVSPost2010Prop47
 90
       50
102
RTVSPost2010PropOp47
 70
     1
102
RTVSPost2010Prop48
 90
       50
102
RTVSPost2010PropOp48
 70
     1
102
RTVSPost2010Prop49
280
     0
102
RTVSPost2010PropOp49
 70
     1
102
RTVSPost2010Prop50
 90
       50
102
RTVSPost2010PropOp50
 70
     1
102
RTVSPost2010Prop51ColorIndex
 90
      256
102
RTVSPost2010Prop51ColorRGB
 90
-16777216
102
RTVSPost2010PropOp51
 70
     0
102
RTVSPost2010Prop52
140
1.0
102
RTVSPost2010PropOp52
 70
     0
102
RTVSPost2010Prop53
 90
        2
102
RTVSPost2010PropOp53
 70
     1
102
RTVSPost2010Prop54
  1
strokes_ogs.tif
102
RTVSPost2010PropOp54
 70
     1
102
RTVSPost2010Prop55
280
     0
102
RTVSPost2010PropOp55
 70
     1
102
RTVSPost2010Prop56
140
1.0
102
RTVSPost2010PropOp56
 70
     1
102
RTVSPost2010Prop57
140
1.0
102
RTVSPost2010PropOp57
 70
     1
  0
XRECORD
  5
D8
102
{ACAD_REACTORS
330
D7
102
}
330
D7
100
AcDbXrecord
280
     1
102
RTVSPropertyOp0
 70
     1
102
RTVSPropertyOp1
 70
     1
102
RTVSPropertyOp2
 70
     1
102
RTVSPropertyOp3
 70
     1
102
RTVSPropertyOp4
 70
     1
102
RTVSPropertyOp5
 70
     1
102
RTVSPropertyOp6
 70
     1
102
RTVSPropertyOp7
 70
     1
102
RTVSPropertyOp8
 70
     1
102
RTVSPropertyOp9
 70
     1
102
RTVSPropertyOp10
 70
     1
102
RTVSPropertyOp11
 70
     1
102
RTVSPropertyOp12
 70
     1
102
RTVSPropertyOp13
 70
     1
102
RTVSPropertyOp14
 70
     1
102
RTVSPropertyOp15
 70
     1
102
RTVSPropertyOp16
 70
     1
102
RTVSPropertyOp17
 70
     1
102
RTVSPropertyOp18
 70
     1
102
RTVSPropertyOp19
 70
     1
102
RTVSPropertyOp20
 70
     1
102
RTVSPropertyOp21
 70
     1
102
RTVSPropertyOp22
 70
     1
102
RTVSPropertyOp23
 70
     1
102
RTVSPropertyOp24
 70
     1
102
RTVSPropertyOp25
 70
     1
102
RTVSPropertyOp26
 70
     1
102
RTVSPropertyOp27
 70
     1
102
RTVSPropertyOp28
 70
     1
102
RTVSPropertyOp29
 70
     1
102
RTVSPropertyOp30
 70
     1
102
RTVSPropertyOp31
 70
     1
102
RTVSPropertyOp32
 70
     1
102
RTVSPropertyOp33
 70
     1
102
RTVSPropertyOp34
 70
     1
102
RTVSPropertyOp35
 70
     1
102
RTVSPropertyOp36
 70
     1
102
RTVSPropertyOp37
 70
     1
102
RTVSPropertyOp38
 70
     1
102
RTVSPropertyOp39
 70
     1
102
RTVSPropertyOp40
 70
     1
102
RTVSPropertyOp41
 70
     1
102
RTVSPropertyOp42
 70
     1
102
RTVSPropertyOp43
 70
     1
102
RTVSPropertyOp44
 70
     1
102
RTVSPropertyOp45
 70
     1
102
RTVSPropertyOp46
 70
     1
102
RTVSPropertyOp47
 70
     1
102
RTVSPropertyOp48
 70
     1
102
RTVSPropertyOp49
 70
     1
102
RTVSPropertyOp50
 70
     1
102
RTVSPropertyOp51
 70
     0
102
RTVSPropertyOp52
 70
     0
102
RTVSPropertyOp53
 70
     1
102
RTVSPropertyOp54
 70
     1
102
RTVSPropertyOp55
 70
     1
102
RTVSPropertyOp56
 70
     1
102
RTVSPropertyOp57
 70
     1
102
RTVSPost2010Prop28
280
     0
102
RTVSPost2010PropOp28
 70
     1
102
RTVSPost2010Prop29
280
     1
102
RTVSPost2010PropOp29
 70
     1
102
RTVSPost2010Prop30
280
     1
102
RTVSPost2010PropOp30
 70
     1
102
RTVSPost2010Prop31
280
     0
102
RTVSPost2010PropOp31
 70
     1
102
RTVSPost2010Prop32
280
     0
102
RTVSPost2010PropOp32
 70
     1
102
RTVSPost2010Prop33
280
     0
102
RTVSPost2010PropOp33
 70
     1
102
RTVSPost2010Prop34
280
     0
102
RTVSPost2010PropOp34
 70
     1
102
RTVSPost2010Prop35
280
     0
102
RTVSPost2010PropOp35
 70
     1
102
RTVSPost2010Prop36
280
     0
102
RTVSPost2010PropOp36
 70
     1
102
RTVSPost2010Prop37
 90
       50
102
RTVSPost2010PropOp37
 70
     1
102
RTVSPost2010Prop38
140
0.0
102
RTVSPost2010PropOp38
 70
     1
102
RTVSPost2010Prop39
140
1.0
102
RTVSPost2010PropOp39
 70
     1
102
RTVSPost2010Prop40
 90
        0
102
RTVSPost2010PropOp40
 70
     1
102
RTVSPost2010Prop41ColorIndex
 90
       18
102
RTVSPost2010Prop41ColorRGB
 90
        0
102
RTVSPost2010PropOp41
 70
     1
102
RTVSPost2010Prop42
 90
       50
102
RTVSPost2010PropOp42
 70
     1
102
RTVSPost2010Prop43
 90
        3
102
RTVSPost2010PropOp43
 70
     1
102
RTVSPost2010Prop44ColorIndex
 90
        5
102
RTVSPost2010Prop44ColorRGB
 90
      255
102
RTVSPost2010PropOp44
 70
     1
102
RTVSPost2010Prop45
280
     0
102
RTVSPost2010PropOp45
 70
     1
102
RTVSPost2010Prop46
 90
       50
102
RTVSPost2010PropOp46
 70
     1
102
RTVSPost2010Prop47
 90
       50
102
RTVSPost2010PropOp47
 70
     1
102
RTVSPost2010Prop48
 90
       50
102
RTVSPost2010PropOp48
 70
     1
102
RTVSPost2010Prop49
280
     0
102
RTVSPost2010PropOp49
 70
     1
102
RTVSPost2010Prop50
 90
       50
102
RTVSPost2010PropOp50
 70
     1
102
RTVSPost2010Prop51ColorIndex
 90
      256
102
RTVSPost2010Prop51ColorRGB
 90
-16777216
102
RTVSPost2010PropOp51
 70
     0
102
RTVSPost2010Prop52
140
1.0
102
RTVSPost2010PropOp52
 70
     0
102
RTVSPost2010Prop53
 90
        2
102
RTVSPost2010PropOp53
 70
     1
102
RTVSPost2010Prop54
  1
strokes_ogs.tif
102
RTVSPost2010PropOp54
 70
     1
102
RTVSPost2010Prop55
280
     0
102
RTVSPost2010PropOp55
 70
     1
102
RTVSPost2010Prop56
140
1.0
102
RTVSPost2010PropOp56
 70
     1
102
RTVSPost2010Prop57
140
1.0
102
RTVSPost2010PropOp57
 70
     1
  0
XRECORD
  5
DE
102
{ACAD_REACTORS
330
DD
102
}
330
DD
100
AcDbXrecord
280
     1
102
RTVSPropertyOp0
 70
     1
102
RTVSPropertyOp1
 70
     1
102
RTVSPropertyOp2
 70
     1
102
RTVSPropertyOp3
 70
     1
102
RTVSPropertyOp4
 70
     1
102
RTVSPropertyOp5
 70
     1
102
RTVSPropertyOp6
 70
     1
102
RTVSPropertyOp7
 70
     1
102
RTVSPropertyOp8
 70
     1
102
RTVSPropertyOp9
 70
     1
102
RTVSPropertyOp10
 70
     1
102
RTVSPropertyOp11
 70
     1
102
RTVSPropertyOp12
 70
     1
102
RTVSPropertyOp13
 70
     1
102
RTVSPropertyOp14
 70
     1
102
RTVSPropertyOp15
 70
     1
102
RTVSPropertyOp16
 70
     1
102
RTVSPropertyOp17
 70
     1
102
RTVSPropertyOp18
 70
     1
102
RTVSPropertyOp19
 70
     1
102
RTVSPropertyOp20
 70
     1
102
RTVSPropertyOp21
 70
     1
102
RTVSPropertyOp22
 70
     1
102
RTVSPropertyOp23
 70
     1
102
RTVSPropertyOp24
 70
     1
102
RTVSPropertyOp25
 70
     1
102
RTVSPropertyOp26
 70
     1
102
RTVSPropertyOp27
 70
     1
102
RTVSPropertyOp28
 70
     1
102
RTVSPropertyOp29
 70
     1
102
RTVSPropertyOp30
 70
     1
102
RTVSPropertyOp31
 70
     1
102
RTVSPropertyOp32
 70
     1
102
RTVSPropertyOp33
 70
     1
102
RTVSPropertyOp34
 70
     1
102
RTVSPropertyOp35
 70
     1
102
RTVSPropertyOp36
 70
     1
102
RTVSPropertyOp37
 70
     1
102
RTVSPropertyOp38
 70
     1
102
RTVSPropertyOp39
 70
     1
102
RTVSPropertyOp40
 70
     1
102
RTVSPropertyOp41
 70
     1
102
RTVSPropertyOp42
 70
     1
102
RTVSPropertyOp43
 70
     1
102
RTVSPropertyOp44
 70
     1
102
RTVSPropertyOp45
 70
     1
102
RTVSPropertyOp46
 70
     1
102
RTVSPropertyOp47
 70
     1
102
RTVSPropertyOp48
 70
     1
102
RTVSPropertyOp49
 70
     1
102
RTVSPropertyOp50
 70
     1
102
RTVSPropertyOp51
 70
     0
102
RTVSPropertyOp52
 70
     0
102
RTVSPropertyOp53
 70
     1
102
RTVSPropertyOp54
 70
     1
102
RTVSPropertyOp55
 70
     1
102
RTVSPropertyOp56
 70
     1
102
RTVSPropertyOp57
 70
     1
102
RTVSPost2010Prop28
280
     0
102
RTVSPost2010PropOp28
 70
     1
102
RTVSPost2010Prop29
280
     1
102
RTVSPost2010PropOp29
 70
     1
102
RTVSPost2010Prop30
280
     1
102
RTVSPost2010PropOp30
 70
     1
102
RTVSPost2010Prop31
280
     0
102
RTVSPost2010PropOp31
 70
     1
102
RTVSPost2010Prop32
280
     0
102
RTVSPost2010PropOp32
 70
     1
102
RTVSPost2010Prop33
280
     0
102
RTVSPost2010PropOp33
 70
     1
102
RTVSPost2010Prop34
280
     0
102
RTVSPost2010PropOp34
 70
     1
102
RTVSPost2010Prop35
280
     0
102
RTVSPost2010PropOp35
 70
     1
102
RTVSPost2010Prop36
280
     0
102
RTVSPost2010PropOp36
 70
     1
102
RTVSPost2010Prop37
 90
       50
102
RTVSPost2010PropOp37
 70
     1
102
RTVSPost2010Prop38
140
0.0
102
RTVSPost2010PropOp38
 70
     1
102
RTVSPost2010Prop39
140
1.0
102
RTVSPost2010PropOp39
 70
     1
102
RTVSPost2010Prop40
 90
        0
102
RTVSPost2010PropOp40
 70
     1
102
RTVSPost2010Prop41ColorIndex
 90
       18
102
RTVSPost2010Prop41ColorRGB
 90
        0
102
RTVSPost2010PropOp41
 70
     1
102
RTVSPost2010Prop42
 90
       50
102
RTVSPost2010PropOp42
 70
     1
102
RTVSPost2010Prop43
 90
        3
102
RTVSPost2010PropOp43
 70
     1
102
RTVSPost2010Prop44ColorIndex
 90
        5
102
RTVSPost2010Prop44ColorRGB
 90
      255
102
RTVSPost2010PropOp44
 70
     1
102
RTVSPost2010Prop45
280
     0
102
RTVSPost2010PropOp45
 70
     1
102
RTVSPost2010Prop46
 90
       50
102
RTVSPost2010PropOp46
 70
     1
102
RTVSPost2010Prop47
 90
       50
102
RTVSPost2010PropOp47
 70
     1
102
RTVSPost2010Prop48
 90
       50
102
RTVSPost2010PropOp48
 70
     1
102
RTVSPost2010Prop49
280
     0
102
RTVSPost2010PropOp49
 70
     1
102
RTVSPost2010Prop50
 90
       50
102
RTVSPost2010PropOp50
 70
     1
102
RTVSPost2010Prop51ColorIndex
 90
      256
102
RTVSPost2010Prop51ColorRGB
 90
-16777216
102
RTVSPost2010PropOp51
 70
     0
102
RTVSPost2010Prop52
140
1.0
102
RTVSPost2010PropOp52
 70
     0
102
RTVSPost2010Prop53
 90
        2
102
RTVSPost2010PropOp53
 70
     1
102
RTVSPost2010Prop54
  1
strokes_ogs.tif
102
RTVSPost2010PropOp54
 70
     1
102
RTVSPost2010Prop55
280
     0
102
RTVSPost2010PropOp55
 70
     1
102
RTVSPost2010Prop56
140
1.0
102
RTVSPost2010PropOp56
 70
     1
102
RTVSPost2010Prop57
140
1.0
102
RTVSPost2010PropOp57
 70
     1
  0
XRECORD
  5
F2
102
{ACAD_REACTORS
330
F1
102
}
330
F1
100
AcDbXrecord
280
     1
102
RTVSPropertyOp0
 70
     0
102
RTVSPropertyOp1
 70
     0
102
RTVSPropertyOp2
 70
     0
102
RTVSPropertyOp3
 70
     0
102
RTVSPropertyOp4
 70
     0
102
RTVSPropertyOp5
 70
     0
102
RTVSPropertyOp6
 70
     0
102
RTVSPropertyOp7
 70
     0
102
RTVSPropertyOp8
 70
     0
102
RTVSPropertyOp9
 70
     0
102
RTVSPropertyOp10
 70
     0
102
RTVSPropertyOp11
 70
     0
102
RTVSPropertyOp12
 70
     0
102
RTVSPropertyOp13
 70
     0
102
RTVSPropertyOp14
 70
     2
102
RTVSPropertyOp15
 70
     0
102
RTVSPropertyOp16
 70
     0
102
RTVSPropertyOp17
 70
     0
102
RTVSPropertyOp18
 70
     0
102
RTVSPropertyOp19
 70
     0
102
RTVSPropertyOp20
 70
     0
102
RTVSPropertyOp21
 70
     0
102
RTVSPropertyOp22
 70
     0
102
RTVSPropertyOp23
 70
     0
102
RTVSPropertyOp24
 70
     0
102
RTVSPropertyOp25
 70
     0
102
RTVSPropertyOp26
 70
     0
102
RTVSPropertyOp27
 70
     0
102
RTVSPropertyOp28
 70
     0
102
RTVSPropertyOp29
 70
     0
102
RTVSPropertyOp30
 70
     0
102
RTVSPropertyOp31
 70
     0
102
RTVSPropertyOp32
 70
     0
102
RTVSPropertyOp33
 70
     0
102
RTVSPropertyOp34
 70
     0
102
RTVSPropertyOp35
 70
     0
102
RTVSPropertyOp36
 70
     0
102
RTVSPropertyOp37
 70
     0
102
RTVSPropertyOp38
 70
     0
102
RTVSPropertyOp39
 70
     0
102
RTVSPropertyOp40
 70
     0
102
RTVSPropertyOp41
 70
     0
102
RTVSPropertyOp42
 70
     0
102
RTVSPropertyOp43
 70
     0
102
RTVSPropertyOp44
 70
     0
102
RTVSPropertyOp45
 70
     0
102
RTVSPropertyOp46
 70
     0
102
RTVSPropertyOp47
 70
     0
102
RTVSPropertyOp48
 70
     0
102
RTVSPropertyOp49
 70
     0
102
RTVSPropertyOp50
 70
     0
102
RTVSPropertyOp51
 70
     0
102
RTVSPropertyOp52
 70
     0
102
RTVSPropertyOp53
 70
     0
102
RTVSPropertyOp54
 70
     0
102
RTVSPropertyOp55
 70
     0
102
RTVSPropertyOp56
 70
     0
102
RTVSPropertyOp57
 70
     0
102
RTVSPost2010Prop28
280
     0
102
RTVSPost2010PropOp28
 70
     0
102
RTVSPost2010Prop29
280
     1
102
RTVSPost2010PropOp29
 70
     0
102
RTVSPost2010Prop30
280
     1
102
RTVSPost2010PropOp30
 70
     0
102
RTVSPost2010Prop31
280
     0
102
RTVSPost2010PropOp31
 70
     0
102
RTVSPost2010Prop32
280
     0
102
RTVSPost2010PropOp32
 70
     0
102
RTVSPost2010Prop33
280
     0
102
RTVSPost2010PropOp33
 70
     0
102
RTVSPost2010Prop34
280
     0
102
RTVSPost2010PropOp34
 70
     0
102
RTVSPost2010Prop35
280
     0
102
RTVSPost2010PropOp35
 70
     0
102
RTVSPost2010Prop36
280
     0
102
RTVSPost2010PropOp36
 70
     0
102
RTVSPost2010Prop37
 90
       50
102
RTVSPost2010PropOp37
 70
     0
102
RTVSPost2010Prop38
140
0.0
102
RTVSPost2010PropOp38
 70
     0
102
RTVSPost2010Prop39
140
1.0
102
RTVSPost2010PropOp39
 70
     0
102
RTVSPost2010Prop40
 90
        0
102
RTVSPost2010PropOp40
 70
     0
102
RTVSPost2010Prop41ColorIndex
 90
       18
102
RTVSPost2010Prop41ColorRGB
 90
        0
102
RTVSPost2010PropOp41
 70
     0
102
RTVSPost2010Prop42
 90
       50
102
RTVSPost2010PropOp42
 70
     0
102
RTVSPost2010Prop43
 90
        3
102
RTVSPost2010PropOp43
 70
     0
102
RTVSPost2010Prop44ColorIndex
 90
        5
102
RTVSPost2010Prop44ColorRGB
 90
      255
102
RTVSPost2010PropOp44
 70
     0
102
RTVSPost2010Prop45
280
     0
102
RTVSPost2010PropOp45
 70
     0
102
RTVSPost2010Prop46
 90
       50
102
RTVSPost2010PropOp46
 70
     0
102
RTVSPost2010Prop47
 90
       50
102
RTVSPost2010PropOp47
 70
     0
102
RTVSPost2010Prop48
 90
       50
102
RTVSPost2010PropOp48
 70
     0
102
RTVSPost2010Prop49
280
     0
102
RTVSPost2010PropOp49
 70
     0
102
RTVSPost2010Prop50
 90
       50
102
RTVSPost2010PropOp50
 70
     0
102
RTVSPost2010Prop51ColorIndex
 90
      256
102
RTVSPost2010Prop51ColorRGB
 90
-16777216
102
RTVSPost2010PropOp51
 70
     0
102
RTVSPost2010Prop52
140
1.0
102
RTVSPost2010PropOp52
 70
     0
102
RTVSPost2010Prop53
 90
        2
102
RTVSPost2010PropOp53
 70
     0
102
RTVSPost2010Prop54
  1
strokes_ogs.tif
102
RTVSPost2010PropOp54
 70
     0
102
RTVSPost2010Prop55
280
     0
102
RTVSPost2010PropOp55
 70
     0
102
RTVSPost2010Prop56
140
1.0
102
RTVSPost2010PropOp56
 70
     0
102
RTVSPost2010Prop57
140
1.0
102
RTVSPost2010PropOp57
 70
     0
  0
XRECORD
  5
EC
102
{ACAD_REACTORS
330
EB
102
}
330
EB
100
AcDbXrecord
280
     1
102
RTVSPropertyOp0
 70
     1
102
RTVSPropertyOp1
 70
     1
102
RTVSPropertyOp2
 70
     1
102
RTVSPropertyOp3
 70
     1
102
RTVSPropertyOp4
 70
     1
102
RTVSPropertyOp5
 70
     1
102
RTVSPropertyOp6
 70
     1
102
RTVSPropertyOp7
 70
     1
102
RTVSPropertyOp8
 70
     1
102
RTVSPropertyOp9
 70
     1
102
RTVSPropertyOp10
 70
     1
102
RTVSPropertyOp11
 70
     1
102
RTVSPropertyOp12
 70
     1
102
RTVSPropertyOp13
 70
     1
102
RTVSPropertyOp14
 70
     1
102
RTVSPropertyOp15
 70
     1
102
RTVSPropertyOp16
 70
     1
102
RTVSPropertyOp17
 70
     1
102
RTVSPropertyOp18
 70
     1
102
RTVSPropertyOp19
 70
     1
102
RTVSPropertyOp20
 70
     1
102
RTVSPropertyOp21
 70
     1
102
RTVSPropertyOp22
 70
     1
102
RTVSPropertyOp23
 70
     1
102
RTVSPropertyOp24
 70
     1
102
RTVSPropertyOp25
 70
     1
102
RTVSPropertyOp26
 70
     1
102
RTVSPropertyOp27
 70
     1
102
RTVSPropertyOp28
 70
     1
102
RTVSPropertyOp29
 70
     1
102
RTVSPropertyOp30
 70
     1
102
RTVSPropertyOp31
 70
     1
102
RTVSPropertyOp32
 70
     1
102
RTVSPropertyOp33
 70
     1
102
RTVSPropertyOp34
 70
     1
102
RTVSPropertyOp35
 70
     1
102
RTVSPropertyOp36
 70
     1
102
RTVSPropertyOp37
 70
     1
102
RTVSPropertyOp38
 70
     1
102
RTVSPropertyOp39
 70
     1
102
RTVSPropertyOp40
 70
     1
102
RTVSPropertyOp41
 70
     1
102
RTVSPropertyOp42
 70
     1
102
RTVSPropertyOp43
 70
     1
102
RTVSPropertyOp44
 70
     1
102
RTVSPropertyOp45
 70
     1
102
RTVSPropertyOp46
 70
     1
102
RTVSPropertyOp47
 70
     1
102
RTVSPropertyOp48
 70
     1
102
RTVSPropertyOp49
 70
     1
102
RTVSPropertyOp50
 70
     1
102
RTVSPropertyOp51
 70
     0
102
RTVSPropertyOp52
 70
     0
102
RTVSPropertyOp53
 70
     1
102
RTVSPropertyOp54
 70
     1
102
RTVSPropertyOp55
 70
     1
102
RTVSPropertyOp56
 70
     1
102
RTVSPropertyOp57
 70
     1
102
RTVSPost2010Prop28
280
     0
102
RTVSPost2010PropOp28
 70
     1
102
RTVSPost2010Prop29
280
     1
102
RTVSPost2010PropOp29
 70
     1
102
RTVSPost2010Prop30
280
     1
102
RTVSPost2010PropOp30
 70
     1
102
RTVSPost2010Prop31
280
     0
102
RTVSPost2010PropOp31
 70
     1
102
RTVSPost2010Prop32
280
     0
102
RTVSPost2010PropOp32
 70
     1
102
RTVSPost2010Prop33
280
     0
102
RTVSPost2010PropOp33
 70
     1
102
RTVSPost2010Prop34
280
     0
102
RTVSPost2010PropOp34
 70
     1
102
RTVSPost2010Prop35
280
     0
102
RTVSPost2010PropOp35
 70
     1
102
RTVSPost2010Prop36
280
     0
102
RTVSPost2010PropOp36
 70
     1
102
RTVSPost2010Prop37
 90
       50
102
RTVSPost2010PropOp37
 70
     1
102
RTVSPost2010Prop38
140
0.0
102
RTVSPost2010PropOp38
 70
     1
102
RTVSPost2010Prop39
140
1.0
102
RTVSPost2010PropOp39
 70
     1
102
RTVSPost2010Prop40
 90
        0
102
RTVSPost2010PropOp40
 70
     1
102
RTVSPost2010Prop41ColorIndex
 90
       18
102
RTVSPost2010Prop41ColorRGB
 90
        0
102
RTVSPost2010PropOp41
 70
     1
102
RTVSPost2010Prop42
 90
       50
102
RTVSPost2010PropOp42
 70
     1
102
RTVSPost2010Prop43
 90
        3
102
RTVSPost2010PropOp43
 70
     1
102
RTVSPost2010Prop44ColorIndex
 90
        5
102
RTVSPost2010Prop44ColorRGB
 90
      255
102
RTVSPost2010PropOp44
 70
     1
102
RTVSPost2010Prop45
280
     0
102
RTVSPost2010PropOp45
 70
     1
102
RTVSPost2010Prop46
 90
       50
102
RTVSPost2010PropOp46
 70
     1
102
RTVSPost2010Prop47
 90
       50
102
RTVSPost2010PropOp47
 70
     1
102
RTVSPost2010Prop48
 90
       50
102
RTVSPost2010PropOp48
 70
     1
102
RTVSPost2010Prop49
280
     0
102
RTVSPost2010PropOp49
 70
     1
102
RTVSPost2010Prop50
 90
       50
102
RTVSPost2010PropOp50
 70
     1
102
RTVSPost2010Prop51ColorIndex
 90
      256
102
RTVSPost2010Prop51ColorRGB
 90
-16777216
102
RTVSPost2010PropOp51
 70
     0
102
RTVSPost2010Prop52
140
1.0
102
RTVSPost2010PropOp52
 70
     0
102
RTVSPost2010Prop53
 90
        2
102
RTVSPost2010PropOp53
 70
     1
102
RTVSPost2010Prop54
  1
strokes_ogs.tif
102
RTVSPost2010PropOp54
 70
     1
102
RTVSPost2010Prop55
280
     0
102
RTVSPost2010PropOp55
 70
     1
102
RTVSPost2010Prop56
140
1.0
102
RTVSPost2010PropOp56
 70
     1
102
RTVSPost2010Prop57
140
1.0
102
RTVSPost2010PropOp57
 70
     1
  0
XRECORD
  5
F4
102
{ACAD_REACTORS
330
F3
102
}
330
F3
100
AcDbXrecord
280
     1
102
RTVSPropertyOp0
 70
     0
102
RTVSPropertyOp1
 70
     0
102
RTVSPropertyOp2
 70
     0
102
RTVSPropertyOp3
 70
     0
102
RTVSPropertyOp4
 70
     0
102
RTVSPropertyOp5
 70
     0
102
RTVSPropertyOp6
 70
     0
102
RTVSPropertyOp7
 70
     0
102
RTVSPropertyOp8
 70
     0
102
RTVSPropertyOp9
 70
     0
102
RTVSPropertyOp10
 70
     0
102
RTVSPropertyOp11
 70
     0
102
RTVSPropertyOp12
 70
     0
102
RTVSPropertyOp13
 70
     0
102
RTVSPropertyOp14
 70
     2
102
RTVSPropertyOp15
 70
     0
102
RTVSPropertyOp16
 70
     0
102
RTVSPropertyOp17
 70
     0
102
RTVSPropertyOp18
 70
     0
102
RTVSPropertyOp19
 70
     0
102
RTVSPropertyOp20
 70
     0
102
RTVSPropertyOp21
 70
     0
102
RTVSPropertyOp22
 70
     0
102
RTVSPropertyOp23
 70
     0
102
RTVSPropertyOp24
 70
     0
102
RTVSPropertyOp25
 70
     0
102
RTVSPropertyOp26
 70
     0
102
RTVSPropertyOp27
 70
     0
102
RTVSPropertyOp28
 70
     0
102
RTVSPropertyOp29
 70
     0
102
RTVSPropertyOp30
 70
     0
102
RTVSPropertyOp31
 70
     0
102
RTVSPropertyOp32
 70
     0
102
RTVSPropertyOp33
 70
     0
102
RTVSPropertyOp34
 70
     0
102
RTVSPropertyOp35
 70
     0
102
RTVSPropertyOp36
 70
     0
102
RTVSPropertyOp37
 70
     0
102
RTVSPropertyOp38
 70
     0
102
RTVSPropertyOp39
 70
     0
102
RTVSPropertyOp40
 70
     0
102
RTVSPropertyOp41
 70
     0
102
RTVSPropertyOp42
 70
     0
102
RTVSPropertyOp43
 70
     0
102
RTVSPropertyOp44
 70
     0
102
RTVSPropertyOp45
 70
     0
102
RTVSPropertyOp46
 70
     0
102
RTVSPropertyOp47
 70
     0
102
RTVSPropertyOp48
 70
     0
102
RTVSPropertyOp49
 70
     0
102
RTVSPropertyOp50
 70
     0
102
RTVSPropertyOp51
 70
     0
102
RTVSPropertyOp52
 70
     0
102
RTVSPropertyOp53
 70
     0
102
RTVSPropertyOp54
 70
     0
102
RTVSPropertyOp55
 70
     0
102
RTVSPropertyOp56
 70
     0
102
RTVSPropertyOp57
 70
     0
102
RTVSPost2010Prop28
280
     0
102
RTVSPost2010PropOp28
 70
     0
102
RTVSPost2010Prop29
280
     1
102
RTVSPost2010PropOp29
 70
     0
102
RTVSPost2010Prop30
280
     1
102
RTVSPost2010PropOp30
 70
     0
102
RTVSPost2010Prop31
280
     0
102
RTVSPost2010PropOp31
 70
     0
102
RTVSPost2010Prop32
280
     0
102
RTVSPost2010PropOp32
 70
     0
102
RTVSPost2010Prop33
280
     0
102
RTVSPost2010PropOp33
 70
     0
102
RTVSPost2010Prop34
280
     0
102
RTVSPost2010PropOp34
 70
     0
102
RTVSPost2010Prop35
280
     0
102
RTVSPost2010PropOp35
 70
     0
102
RTVSPost2010Prop36
280
     0
102
RTVSPost2010PropOp36
 70
     0
102
RTVSPost2010Prop37
 90
       50
102
RTVSPost2010PropOp37
 70
     0
102
RTVSPost2010Prop38
140
0.0
102
RTVSPost2010PropOp38
 70
     0
102
RTVSPost2010Prop39
140
1.0
102
RTVSPost2010PropOp39
 70
     0
102
RTVSPost2010Prop40
 90
        0
102
RTVSPost2010PropOp40
 70
     0
102
RTVSPost2010Prop41ColorIndex
 90
       18
102
RTVSPost2010Prop41ColorRGB
 90
        0
102
RTVSPost2010PropOp41
 70
     0
102
RTVSPost2010Prop42
 90
       50
102
RTVSPost2010PropOp42
 70
     0
102
RTVSPost2010Prop43
 90
        3
102
RTVSPost2010PropOp43
 70
     0
102
RTVSPost2010Prop44ColorIndex
 90
        5
102
RTVSPost2010Prop44ColorRGB
 90
      255
102
RTVSPost2010PropOp44
 70
     0
102
RTVSPost2010Prop45
280
     0
102
RTVSPost2010PropOp45
 70
     0
102
RTVSPost2010Prop46
 90
       50
102
RTVSPost2010PropOp46
 70
     0
102
RTVSPost2010Prop47
 90
       50
102
RTVSPost2010PropOp47
 70
     0
102
RTVSPost2010Prop48
 90
       50
102
RTVSPost2010PropOp48
 70
     0
102
RTVSPost2010Prop49
280
     0
102
RTVSPost2010PropOp49
 70
     0
102
RTVSPost2010Prop50
 90
       50
102
RTVSPost2010PropOp50
 70
     0
102
RTVSPost2010Prop51ColorIndex
 90
      256
102
RTVSPost2010Prop51ColorRGB
 90
-16777216
102
RTVSPost2010PropOp51
 70
     0
102
RTVSPost2010Prop52
140
1.0
102
RTVSPost2010PropOp52
 70
     0
102
RTVSPost2010Prop53
 90
        2
102
RTVSPost2010PropOp53
 70
     0
102
RTVSPost2010Prop54
  1
strokes_ogs.tif
102
RTVSPost2010PropOp54
 70
     0
102
RTVSPost2010Prop55
280
     0
102
RTVSPost2010PropOp55
 70
     0
102
RTVSPost2010Prop56
140
1.0
102
RTVSPost2010PropOp56
 70
     0
102
RTVSPost2010Prop57
140
1.0
102
RTVSPost2010PropOp57
 70
     0
  0
XRECORD
  5
E2
102
{ACAD_REACTORS
330
E1
102
}
330
E1
100
AcDbXrecord
280
     1
102
RTVSPropertyOp0
 70
     1
102
RTVSPropertyOp1
 70
     1
102
RTVSPropertyOp2
 70
     1
102
RTVSPropertyOp3
 70
     1
102
RTVSPropertyOp4
 70
     1
102
RTVSPropertyOp5
 70
     1
102
RTVSPropertyOp6
 70
     1
102
RTVSPropertyOp7
 70
     1
102
RTVSPropertyOp8
 70
     1
102
RTVSPropertyOp9
 70
     1
102
RTVSPropertyOp10
 70
     1
102
RTVSPropertyOp11
 70
     1
102
RTVSPropertyOp12
 70
     1
102
RTVSPropertyOp13
 70
     1
102
RTVSPropertyOp14
 70
     1
102
RTVSPropertyOp15
 70
     1
102
RTVSPropertyOp16
 70
     1
102
RTVSPropertyOp17
 70
     1
102
RTVSPropertyOp18
 70
     1
102
RTVSPropertyOp19
 70
     1
102
RTVSPropertyOp20
 70
     1
102
RTVSPropertyOp21
 70
     1
102
RTVSPropertyOp22
 70
     1
102
RTVSPropertyOp23
 70
     1
102
RTVSPropertyOp24
 70
     1
102
RTVSPropertyOp25
 70
     1
102
RTVSPropertyOp26
 70
     1
102
RTVSPropertyOp27
 70
     1
102
RTVSPropertyOp28
 70
     1
102
RTVSPropertyOp29
 70
     1
102
RTVSPropertyOp30
 70
     1
102
RTVSPropertyOp31
 70
     1
102
RTVSPropertyOp32
 70
     1
102
RTVSPropertyOp33
 70
     1
102
RTVSPropertyOp34
 70
     1
102
RTVSPropertyOp35
 70
     1
102
RTVSPropertyOp36
 70
     1
102
RTVSPropertyOp37
 70
     1
102
RTVSPropertyOp38
 70
     1
102
RTVSPropertyOp39
 70
     1
102
RTVSPropertyOp40
 70
     1
102
RTVSPropertyOp41
 70
     1
102
RTVSPropertyOp42
 70
     1
102
RTVSPropertyOp43
 70
     1
102
RTVSPropertyOp44
 70
     1
102
RTVSPropertyOp45
 70
     1
102
RTVSPropertyOp46
 70
     1
102
RTVSPropertyOp47
 70
     1
102
RTVSPropertyOp48
 70
     1
102
RTVSPropertyOp49
 70
     1
102
RTVSPropertyOp50
 70
     1
102
RTVSPropertyOp51
 70
     0
102
RTVSPropertyOp52
 70
     0
102
RTVSPropertyOp53
 70
     1
102
RTVSPropertyOp54
 70
     1
102
RTVSPropertyOp55
 70
     1
102
RTVSPropertyOp56
 70
     1
102
RTVSPropertyOp57
 70
     1
102
RTVSPost2010Prop28
280
     0
102
RTVSPost2010PropOp28
 70
     1
102
RTVSPost2010Prop29
280
     1
102
RTVSPost2010PropOp29
 70
     1
102
RTVSPost2010Prop30
280
     1
102
RTVSPost2010PropOp30
 70
     1
102
RTVSPost2010Prop31
280
     0
102
RTVSPost2010PropOp31
 70
     1
102
RTVSPost2010Prop32
280
     0
102
RTVSPost2010PropOp32
 70
     1
102
RTVSPost2010Prop33
280
     0
102
RTVSPost2010PropOp33
 70
     1
102
RTVSPost2010Prop34
280
     0
102
RTVSPost2010PropOp34
 70
     1
102
RTVSPost2010Prop35
280
     0
102
RTVSPost2010PropOp35
 70
     1
102
RTVSPost2010Prop36
280
     0
102
RTVSPost2010PropOp36
 70
     1
102
RTVSPost2010Prop37
 90
       50
102
RTVSPost2010PropOp37
 70
     1
102
RTVSPost2010Prop38
140
0.0
102
RTVSPost2010PropOp38
 70
     1
102
RTVSPost2010Prop39
140
1.0
102
RTVSPost2010PropOp39
 70
     1
102
RTVSPost2010Prop40
 90
        0
102
RTVSPost2010PropOp40
 70
     1
102
RTVSPost2010Prop41ColorIndex
 90
       18
102
RTVSPost2010Prop41ColorRGB
 90
        0
102
RTVSPost2010PropOp41
 70
     1
102
RTVSPost2010Prop42
 90
       50
102
RTVSPost2010PropOp42
 70
     1
102
RTVSPost2010Prop43
 90
        3
102
RTVSPost2010PropOp43
 70
     1
102
RTVSPost2010Prop44ColorIndex
 90
        5
102
RTVSPost2010Prop44ColorRGB
 90
      255
102
RTVSPost2010PropOp44
 70
     1
102
RTVSPost2010Prop45
280
     0
102
RTVSPost2010PropOp45
 70
     1
102
RTVSPost2010Prop46
 90
       50
102
RTVSPost2010PropOp46
 70
     1
102
RTVSPost2010Prop47
 90
       50
102
RTVSPost2010PropOp47
 70
     1
102
RTVSPost2010Prop48
 90
       50
102
RTVSPost2010PropOp48
 70
     1
102
RTVSPost2010Prop49
280
     0
102
RTVSPost2010PropOp49
 70
     1
102
RTVSPost2010Prop50
 90
       50
102
RTVSPost2010PropOp50
 70
     1
102
RTVSPost2010Prop51ColorIndex
 90
      256
102
RTVSPost2010Prop51ColorRGB
 90
-16777216
102
RTVSPost2010PropOp51
 70
     0
102
RTVSPost2010Prop52
140
1.0
102
RTVSPost2010PropOp52
 70
     0
102
RTVSPost2010Prop53
 90
        2
102
RTVSPost2010PropOp53
 70
     1
102
RTVSPost2010Prop54
  1
strokes_ogs.tif
102
RTVSPost2010PropOp54
 70
     1
102
RTVSPost2010Prop55
280
     0
102
RTVSPost2010PropOp55
 70
     1
102
RTVSPost2010Prop56
140
1.0
102
RTVSPost2010PropOp56
 70
     1
102
RTVSPost2010Prop57
140
1.0
102
RTVSPost2010PropOp57
 70
     1
  0
XRECORD
  5
100
102
{ACAD_REACTORS
330
FF
102
}
330
FF
100
AcDbXrecord
280
     1
102
RTVSPropertyOp0
 70
     1
102
RTVSPropertyOp1
 70
     1
102
RTVSPropertyOp2
 70
     1
102
RTVSPropertyOp3
 70
     1
102
RTVSPropertyOp4
 70
     1
102
RTVSPropertyOp5
 70
     1
102
RTVSPropertyOp6
 70
     1
102
RTVSPropertyOp7
 70
     1
102
RTVSPropertyOp8
 70
     1
102
RTVSPropertyOp9
 70
     1
102
RTVSPropertyOp10
 70
     1
102
RTVSPropertyOp11
 70
     1
102
RTVSPropertyOp12
 70
     1
102
RTVSPropertyOp13
 70
     1
102
RTVSPropertyOp14
 70
     1
102
RTVSPropertyOp15
 70
     1
102
RTVSPropertyOp16
 70
     1
102
RTVSPropertyOp17
 70
     1
102
RTVSPropertyOp18
 70
     1
102
RTVSPropertyOp19
 70
     1
102
RTVSPropertyOp20
 70
     1
102
RTVSPropertyOp21
 70
     1
102
RTVSPropertyOp22
 70
     1
102
RTVSPropertyOp23
 70
     1
102
RTVSPropertyOp24
 70
     1
102
RTVSPropertyOp25
 70
     1
102
RTVSPropertyOp26
 70
     1
102
RTVSPropertyOp27
 70
     1
102
RTVSPropertyOp28
 70
     1
102
RTVSPropertyOp29
 70
     1
102
RTVSPropertyOp30
 70
     1
102
RTVSPropertyOp31
 70
     1
102
RTVSPropertyOp32
 70
     1
102
RTVSPropertyOp33
 70
     1
102
RTVSPropertyOp34
 70
     1
102
RTVSPropertyOp35
 70
     1
102
RTVSPropertyOp36
 70
     1
102
RTVSPropertyOp37
 70
     1
102
RTVSPropertyOp38
 70
     1
102
RTVSPropertyOp39
 70
     1
102
RTVSPropertyOp40
 70
     1
102
RTVSPropertyOp41
 70
     1
102
RTVSPropertyOp42
 70
     1
102
RTVSPropertyOp43
 70
     1
102
RTVSPropertyOp44
 70
     1
102
RTVSPropertyOp45
 70
     1
102
RTVSPropertyOp46
 70
     1
102
RTVSPropertyOp47
 70
     1
102
RTVSPropertyOp48
 70
     1
102
RTVSPropertyOp49
 70
     1
102
RTVSPropertyOp50
 70
     1
102
RTVSPropertyOp51
 70
     0
102
RTVSPropertyOp52
 70
     0
102
RTVSPropertyOp53
 70
     1
102
RTVSPropertyOp54
 70
     1
102
RTVSPropertyOp55
 70
     1
102
RTVSPropertyOp56
 70
     1
102
RTVSPropertyOp57
 70
     1
102
RTVSPost2010Prop28
280
     0
102
RTVSPost2010PropOp28
 70
     1
102
RTVSPost2010Prop29
280
     1
102
RTVSPost2010PropOp29
 70
     1
102
RTVSPost2010Prop30
280
     1
102
RTVSPost2010PropOp30
 70
     1
102
RTVSPost2010Prop31
280
     0
102
RTVSPost2010PropOp31
 70
     1
102
RTVSPost2010Prop32
280
     0
102
RTVSPost2010PropOp32
 70
     1
102
RTVSPost2010Prop33
280
     0
102
RTVSPost2010PropOp33
 70
     1
102
RTVSPost2010Prop34
280
     0
102
RTVSPost2010PropOp34
 70
     1
102
RTVSPost2010Prop35
280
     0
102
RTVSPost2010PropOp35
 70
     1
102
RTVSPost2010Prop36
280
     0
102
RTVSPost2010PropOp36
 70
     1
102
RTVSPost2010Prop37
 90
       50
102
RTVSPost2010PropOp37
 70
     1
102
RTVSPost2010Prop38
140
0.0
102
RTVSPost2010PropOp38
 70
     1
102
RTVSPost2010Prop39
140
1.0
102
RTVSPost2010PropOp39
 70
     1
102
RTVSPost2010Prop40
 90
        0
102
RTVSPost2010PropOp40
 70
     1
102
RTVSPost2010Prop41ColorIndex
 90
       18
102
RTVSPost2010Prop41ColorRGB
 90
        0
102
RTVSPost2010PropOp41
 70
     1
102
RTVSPost2010Prop42
 90
       50
102
RTVSPost2010PropOp42
 70
     1
102
RTVSPost2010Prop43
 90
        3
102
RTVSPost2010PropOp43
 70
     1
102
RTVSPost2010Prop44ColorIndex
 90
        5
102
RTVSPost2010Prop44ColorRGB
 90
      255
102
RTVSPost2010PropOp44
 70
     1
102
RTVSPost2010Prop45
280
     0
102
RTVSPost2010PropOp45
 70
     1
102
RTVSPost2010Prop46
 90
       50
102
RTVSPost2010PropOp46
 70
     1
102
RTVSPost2010Prop47
 90
       50
102
RTVSPost2010PropOp47
 70
     1
102
RTVSPost2010Prop48
 90
       50
102
RTVSPost2010PropOp48
 70
     1
102
RTVSPost2010Prop49
280
     0
102
RTVSPost2010PropOp49
 70
     1
102
RTVSPost2010Prop50
 90
       50
102
RTVSPost2010PropOp50
 70
     1
102
RTVSPost2010Prop51ColorIndex
 90
      256
102
RTVSPost2010Prop51ColorRGB
 90
-16777216
102
RTVSPost2010PropOp51
 70
     0
102
RTVSPost2010Prop52
140
1.0
102
RTVSPost2010PropOp52
 70
     0
102
RTVSPost2010Prop53
 90
        2
102
RTVSPost2010PropOp53
 70
     1
102
RTVSPost2010Prop54
  1
strokes_ogs.tif
102
RTVSPost2010PropOp54
 70
     1
102
RTVSPost2010Prop55
280
     0
102
RTVSPost2010PropOp55
 70
     1
102
RTVSPost2010Prop56
140
1.0
102
RTVSPost2010PropOp56
 70
     1
102
RTVSPost2010Prop57
140
1.0
102
RTVSPost2010PropOp57
 70
     1
  0
XRECORD
  5
FE
102
{ACAD_REACTORS
330
FD
102
}
330
FD
100
AcDbXrecord
280
     1
102
RTVSPropertyOp0
 70
     1
102
RTVSPropertyOp1
 70
     1
102
RTVSPropertyOp2
 70
     1
102
RTVSPropertyOp3
 70
     1
102
RTVSPropertyOp4
 70
     1
102
RTVSPropertyOp5
 70
     1
102
RTVSPropertyOp6
 70
     1
102
RTVSPropertyOp7
 70
     1
102
RTVSPropertyOp8
 70
     1
102
RTVSPropertyOp9
 70
     1
102
RTVSPropertyOp10
 70
     1
102
RTVSPropertyOp11
 70
     1
102
RTVSPropertyOp12
 70
     1
102
RTVSPropertyOp13
 70
     1
102
RTVSPropertyOp14
 70
     1
102
RTVSPropertyOp15
 70
     1
102
RTVSPropertyOp16
 70
     1
102
RTVSPropertyOp17
 70
     1
102
RTVSPropertyOp18
 70
     1
102
RTVSPropertyOp19
 70
     1
102
RTVSPropertyOp20
 70
     1
102
RTVSPropertyOp21
 70
     1
102
RTVSPropertyOp22
 70
     1
102
RTVSPropertyOp23
 70
     1
102
RTVSPropertyOp24
 70
     1
102
RTVSPropertyOp25
 70
     1
102
RTVSPropertyOp26
 70
     1
102
RTVSPropertyOp27
 70
     1
102
RTVSPropertyOp28
 70
     1
102
RTVSPropertyOp29
 70
     1
102
RTVSPropertyOp30
 70
     1
102
RTVSPropertyOp31
 70
     1
102
RTVSPropertyOp32
 70
     1
102
RTVSPropertyOp33
 70
     1
102
RTVSPropertyOp34
 70
     1
102
RTVSPropertyOp35
 70
     1
102
RTVSPropertyOp36
 70
     1
102
RTVSPropertyOp37
 70
     1
102
RTVSPropertyOp38
 70
     1
102
RTVSPropertyOp39
 70
     1
102
RTVSPropertyOp40
 70
     1
102
RTVSPropertyOp41
 70
     1
102
RTVSPropertyOp42
 70
     1
102
RTVSPropertyOp43
 70
     1
102
RTVSPropertyOp44
 70
     1
102
RTVSPropertyOp45
 70
     1
102
RTVSPropertyOp46
 70
     1
102
RTVSPropertyOp47
 70
     1
102
RTVSPropertyOp48
 70
     1
102
RTVSPropertyOp49
 70
     1
102
RTVSPropertyOp50
 70
     1
102
RTVSPropertyOp51
 70
     0
102
RTVSPropertyOp52
 70
     0
102
RTVSPropertyOp53
 70
     1
102
RTVSPropertyOp54
 70
     1
102
RTVSPropertyOp55
 70
     1
102
RTVSPropertyOp56
 70
     1
102
RTVSPropertyOp57
 70
     1
102
RTVSPost2010Prop28
280
     0
102
RTVSPost2010PropOp28
 70
     1
102
RTVSPost2010Prop29
280
     1
102
RTVSPost2010PropOp29
 70
     1
102
RTVSPost2010Prop30
280
     1
102
RTVSPost2010PropOp30
 70
     1
102
RTVSPost2010Prop31
280
     0
102
RTVSPost2010PropOp31
 70
     1
102
RTVSPost2010Prop32
280
     0
102
RTVSPost2010PropOp32
 70
     1
102
RTVSPost2010Prop33
280
     0
102
RTVSPost2010PropOp33
 70
     1
102
RTVSPost2010Prop34
280
     0
102
RTVSPost2010PropOp34
 70
     1
102
RTVSPost2010Prop35
280
     0
102
RTVSPost2010PropOp35
 70
     1
102
RTVSPost2010Prop36
280
     0
102
RTVSPost2010PropOp36
 70
     1
102
RTVSPost2010Prop37
 90
       50
102
RTVSPost2010PropOp37
 70
     1
102
RTVSPost2010Prop38
140
0.0
102
RTVSPost2010PropOp38
 70
     1
102
RTVSPost2010Prop39
140
1.0
102
RTVSPost2010PropOp39
 70
     1
102
RTVSPost2010Prop40
 90
        0
102
RTVSPost2010PropOp40
 70
     1
102
RTVSPost2010Prop41ColorIndex
 90
       18
102
RTVSPost2010Prop41ColorRGB
 90
        0
102
RTVSPost2010PropOp41
 70
     1
102
RTVSPost2010Prop42
 90
       50
102
RTVSPost2010PropOp42
 70
     1
102
RTVSPost2010Prop43
 90
        3
102
RTVSPost2010PropOp43
 70
     1
102
RTVSPost2010Prop44ColorIndex
 90
        5
102
RTVSPost2010Prop44ColorRGB
 90
      255
102
RTVSPost2010PropOp44
 70
     1
102
RTVSPost2010Prop45
280
     0
102
RTVSPost2010PropOp45
 70
     1
102
RTVSPost2010Prop46
 90
       50
102
RTVSPost2010PropOp46
 70
     1
102
RTVSPost2010Prop47
 90
       50
102
RTVSPost2010PropOp47
 70
     1
102
RTVSPost2010Prop48
 90
       50
102
RTVSPost2010PropOp48
 70
     1
102
RTVSPost2010Prop49
280
     0
102
RTVSPost2010PropOp49
 70
     1
102
RTVSPost2010Prop50
 90
       50
102
RTVSPost2010PropOp50
 70
     1
102
RTVSPost2010Prop51ColorIndex
 90
      256
102
RTVSPost2010Prop51ColorRGB
 90
-16777216
102
RTVSPost2010PropOp51
 70
     0
102
RTVSPost2010Prop52
140
1.0
102
RTVSPost2010PropOp52
 70
     0
102
RTVSPost2010Prop53
 90
        2
102
RTVSPost2010PropOp53
 70
     1
102
RTVSPost2010Prop54
  1
strokes_ogs.tif
102
RTVSPost2010PropOp54
 70
     1
102
RTVSPost2010Prop55
280
     0
102
RTVSPost2010PropOp55
 70
     1
102
RTVSPost2010Prop56
140
1.0
102
RTVSPost2010PropOp56
 70
     1
102
RTVSPost2010Prop57
140
1.0
102
RTVSPost2010PropOp57
 70
     1
  0
XRECORD
  5
F8
102
{ACAD_REACTORS
330
F7
102
}
330
F7
100
AcDbXrecord
280
     1
102
RTVSPropertyOp0
 70
     1
102
RTVSPropertyOp1
 70
     1
102
RTVSPropertyOp2
 70
     1
102
RTVSPropertyOp3
 70
     1
102
RTVSPropertyOp4
 70
     1
102
RTVSPropertyOp5
 70
     1
102
RTVSPropertyOp6
 70
     1
102
RTVSPropertyOp7
 70
     1
102
RTVSPropertyOp8
 70
     1
102
RTVSPropertyOp9
 70
     1
102
RTVSPropertyOp10
 70
     1
102
RTVSPropertyOp11
 70
     1
102
RTVSPropertyOp12
 70
     1
102
RTVSPropertyOp13
 70
     1
102
RTVSPropertyOp14
 70
     1
102
RTVSPropertyOp15
 70
     1
102
RTVSPropertyOp16
 70
     1
102
RTVSPropertyOp17
 70
     1
102
RTVSPropertyOp18
 70
     1
102
RTVSPropertyOp19
 70
     1
102
RTVSPropertyOp20
 70
     1
102
RTVSPropertyOp21
 70
     1
102
RTVSPropertyOp22
 70
     1
102
RTVSPropertyOp23
 70
     1
102
RTVSPropertyOp24
 70
     1
102
RTVSPropertyOp25
 70
     1
102
RTVSPropertyOp26
 70
     1
102
RTVSPropertyOp27
 70
     1
102
RTVSPropertyOp28
 70
     1
102
RTVSPropertyOp29
 70
     1
102
RTVSPropertyOp30
 70
     1
102
RTVSPropertyOp31
 70
     1
102
RTVSPropertyOp32
 70
     1
102
RTVSPropertyOp33
 70
     1
102
RTVSPropertyOp34
 70
     1
102
RTVSPropertyOp35
 70
     1
102
RTVSPropertyOp36
 70
     1
102
RTVSPropertyOp37
 70
     1
102
RTVSPropertyOp38
 70
     1
102
RTVSPropertyOp39
 70
     1
102
RTVSPropertyOp40
 70
     1
102
RTVSPropertyOp41
 70
     1
102
RTVSPropertyOp42
 70
     1
102
RTVSPropertyOp43
 70
     1
102
RTVSPropertyOp44
 70
     1
102
RTVSPropertyOp45
 70
     1
102
RTVSPropertyOp46
 70
     1
102
RTVSPropertyOp47
 70
     1
102
RTVSPropertyOp48
 70
     1
102
RTVSPropertyOp49
 70
     1
102
RTVSPropertyOp50
 70
     1
102
RTVSPropertyOp51
 70
     0
102
RTVSPropertyOp52
 70
     0
102
RTVSPropertyOp53
 70
     1
102
RTVSPropertyOp54
 70
     1
102
RTVSPropertyOp55
 70
     1
102
RTVSPropertyOp56
 70
     1
102
RTVSPropertyOp57
 70
     1
102
RTVSPost2010Prop28
280
     0
102
RTVSPost2010PropOp28
 70
     1
102
RTVSPost2010Prop29
280
     1
102
RTVSPost2010PropOp29
 70
     1
102
RTVSPost2010Prop30
280
     1
102
RTVSPost2010PropOp30
 70
     1
102
RTVSPost2010Prop31
280
     0
102
RTVSPost2010PropOp31
 70
     1
102
RTVSPost2010Prop32
280
     0
102
RTVSPost2010PropOp32
 70
     1
102
RTVSPost2010Prop33
280
     0
102
RTVSPost2010PropOp33
 70
     1
102
RTVSPost2010Prop34
280
     0
102
RTVSPost2010PropOp34
 70
     1
102
RTVSPost2010Prop35
280
     0
102
RTVSPost2010PropOp35
 70
     1
102
RTVSPost2010Prop36
280
     0
102
RTVSPost2010PropOp36
 70
     1
102
RTVSPost2010Prop37
 90
       50
102
RTVSPost2010PropOp37
 70
     1
102
RTVSPost2010Prop38
140
0.0
102
RTVSPost2010PropOp38
 70
     1
102
RTVSPost2010Prop39
140
1.0
102
RTVSPost2010PropOp39
 70
     1
102
RTVSPost2010Prop40
 90
        0
102
RTVSPost2010PropOp40
 70
     1
102
RTVSPost2010Prop41ColorIndex
 90
       18
102
RTVSPost2010Prop41ColorRGB
 90
        0
102
RTVSPost2010PropOp41
 70
     1
102
RTVSPost2010Prop42
 90
       50
102
RTVSPost2010PropOp42
 70
     1
102
RTVSPost2010Prop43
 90
        3
102
RTVSPost2010PropOp43
 70
     1
102
RTVSPost2010Prop44ColorIndex
 90
        5
102
RTVSPost2010Prop44ColorRGB
 90
      255
102
RTVSPost2010PropOp44
 70
     1
102
RTVSPost2010Prop45
280
     0
102
RTVSPost2010PropOp45
 70
     1
102
RTVSPost2010Prop46
 90
       50
102
RTVSPost2010PropOp46
 70
     1
102
RTVSPost2010Prop47
 90
       50
102
RTVSPost2010PropOp47
 70
     1
102
RTVSPost2010Prop48
 90
       50
102
RTVSPost2010PropOp48
 70
     1
102
RTVSPost2010Prop49
280
     0
102
RTVSPost2010PropOp49
 70
     1
102
RTVSPost2010Prop50
 90
       50
102
RTVSPost2010PropOp50
 70
     1
102
RTVSPost2010Prop51ColorIndex
 90
      256
102
RTVSPost2010Prop51ColorRGB
 90
-16777216
102
RTVSPost2010PropOp51
 70
     0
102
RTVSPost2010Prop52
140
1.0
102
RTVSPost2010PropOp52
 70
     0
102
RTVSPost2010Prop53
 90
        2
102
RTVSPost2010PropOp53
 70
     1
102
RTVSPost2010Prop54
  1
strokes_ogs.tif
102
RTVSPost2010PropOp54
 70
     1
102
RTVSPost2010Prop55
280
     0
102
RTVSPost2010PropOp55
 70
     1
102
RTVSPost2010Prop56
140
1.0
102
RTVSPost2010PropOp56
 70
     1
102
RTVSPost2010Prop57
140
1.0
102
RTVSPost2010PropOp57
 70
     1
  0
XRECORD
  5
FA
102
{ACAD_REACTORS
330
F9
102
}
330
F9
100
AcDbXrecord
280
     1
102
RTVSPropertyOp0
 70
     1
102
RTVSPropertyOp1
 70
     1
102
RTVSPropertyOp2
 70
     1
102
RTVSPropertyOp3
 70
     1
102
RTVSPropertyOp4
 70
     1
102
RTVSPropertyOp5
 70
     1
102
RTVSPropertyOp6
 70
     1
102
RTVSPropertyOp7
 70
     1
102
RTVSPropertyOp8
 70
     1
102
RTVSPropertyOp9
 70
     1
102
RTVSPropertyOp10
 70
     1
102
RTVSPropertyOp11
 70
     1
102
RTVSPropertyOp12
 70
     1
102
RTVSPropertyOp13
 70
     1
102
RTVSPropertyOp14
 70
     1
102
RTVSPropertyOp15
 70
     1
102
RTVSPropertyOp16
 70
     1
102
RTVSPropertyOp17
 70
     1
102
RTVSPropertyOp18
 70
     1
102
RTVSPropertyOp19
 70
     1
102
RTVSPropertyOp20
 70
     1
102
RTVSPropertyOp21
 70
     1
102
RTVSPropertyOp22
 70
     1
102
RTVSPropertyOp23
 70
     1
102
RTVSPropertyOp24
 70
     1
102
RTVSPropertyOp25
 70
     1
102
RTVSPropertyOp26
 70
     1
102
RTVSPropertyOp27
 70
     1
102
RTVSPropertyOp28
 70
     1
102
RTVSPropertyOp29
 70
     1
102
RTVSPropertyOp30
 70
     1
102
RTVSPropertyOp31
 70
     1
102
RTVSPropertyOp32
 70
     1
102
RTVSPropertyOp33
 70
     1
102
RTVSPropertyOp34
 70
     1
102
RTVSPropertyOp35
 70
     1
102
RTVSPropertyOp36
 70
     1
102
RTVSPropertyOp37
 70
     1
102
RTVSPropertyOp38
 70
     1
102
RTVSPropertyOp39
 70
     1
102
RTVSPropertyOp40
 70
     1
102
RTVSPropertyOp41
 70
     1
102
RTVSPropertyOp42
 70
     1
102
RTVSPropertyOp43
 70
     1
102
RTVSPropertyOp44
 70
     1
102
RTVSPropertyOp45
 70
     1
102
RTVSPropertyOp46
 70
     1
102
RTVSPropertyOp47
 70
     1
102
RTVSPropertyOp48
 70
     1
102
RTVSPropertyOp49
 70
     1
102
RTVSPropertyOp50
 70
     1
102
RTVSPropertyOp51
 70
     0
102
RTVSPropertyOp52
 70
     0
102
RTVSPropertyOp53
 70
     1
102
RTVSPropertyOp54
 70
     1
102
RTVSPropertyOp55
 70
     1
102
RTVSPropertyOp56
 70
     1
102
RTVSPropertyOp57
 70
     1
102
RTVSPost2010Prop28
280
     0
102
RTVSPost2010PropOp28
 70
     1
102
RTVSPost2010Prop29
280
     1
102
RTVSPost2010PropOp29
 70
     1
102
RTVSPost2010Prop30
280
     1
102
RTVSPost2010PropOp30
 70
     1
102
RTVSPost2010Prop31
280
     0
102
RTVSPost2010PropOp31
 70
     1
102
RTVSPost2010Prop32
280
     0
102
RTVSPost2010PropOp32
 70
     1
102
RTVSPost2010Prop33
280
     0
102
RTVSPost2010PropOp33
 70
     1
102
RTVSPost2010Prop34
280
     0
102
RTVSPost2010PropOp34
 70
     1
102
RTVSPost2010Prop35
280
     0
102
RTVSPost2010PropOp35
 70
     1
102
RTVSPost2010Prop36
280
     0
102
RTVSPost2010PropOp36
 70
     1
102
RTVSPost2010Prop37
 90
       50
102
RTVSPost2010PropOp37
 70
     1
102
RTVSPost2010Prop38
140
0.0
102
RTVSPost2010PropOp38
 70
     1
102
RTVSPost2010Prop39
140
1.0
102
RTVSPost2010PropOp39
 70
     1
102
RTVSPost2010Prop40
 90
        0
102
RTVSPost2010PropOp40
 70
     1
102
RTVSPost2010Prop41ColorIndex
 90
       18
102
RTVSPost2010Prop41ColorRGB
 90
        0
102
RTVSPost2010PropOp41
 70
     1
102
RTVSPost2010Prop42
 90
       50
102
RTVSPost2010PropOp42
 70
     1
102
RTVSPost2010Prop43
 90
        3
102
RTVSPost2010PropOp43
 70
     1
102
RTVSPost2010Prop44ColorIndex
 90
        5
102
RTVSPost2010Prop44ColorRGB
 90
      255
102
RTVSPost2010PropOp44
 70
     1
102
RTVSPost2010Prop45
280
     0
102
RTVSPost2010PropOp45
 70
     1
102
RTVSPost2010Prop46
 90
       50
102
RTVSPost2010PropOp46
 70
     1
102
RTVSPost2010Prop47
 90
       50
102
RTVSPost2010PropOp47
 70
     1
102
RTVSPost2010Prop48
 90
       50
102
RTVSPost2010PropOp48
 70
     1
102
RTVSPost2010Prop49
280
     0
102
RTVSPost2010PropOp49
 70
     1
102
RTVSPost2010Prop50
 90
       50
102
RTVSPost2010PropOp50
 70
     1
102
RTVSPost2010Prop51ColorIndex
 90
      256
102
RTVSPost2010Prop51ColorRGB
 90
-16777216
102
RTVSPost2010PropOp51
 70
     0
102
RTVSPost2010Prop52
140
1.0
102
RTVSPost2010PropOp52
 70
     0
102
RTVSPost2010Prop53
 90
        2
102
RTVSPost2010PropOp53
 70
     1
102
RTVSPost2010Prop54
  1
strokes_ogs.tif
102
RTVSPost2010PropOp54
 70
     1
102
RTVSPost2010Prop55
280
     0
102
RTVSPost2010PropOp55
 70
     1
102
RTVSPost2010Prop56
140
1.0
102
RTVSPost2010PropOp56
 70
     1
102
RTVSPost2010Prop57
140
1.0
102
RTVSPost2010PropOp57
 70
     1
  0
XRECORD
  5
EA
102
{ACAD_REACTORS
330
E9
102
}
330
E9
100
AcDbXrecord
280
     1
102
RTVSPropertyOp0
 70
     1
102
RTVSPropertyOp1
 70
     1
102
RTVSPropertyOp2
 70
     1
102
RTVSPropertyOp3
 70
     1
102
RTVSPropertyOp4
 70
     1
102
RTVSPropertyOp5
 70
     1
102
RTVSPropertyOp6
 70
     1
102
RTVSPropertyOp7
 70
     1
102
RTVSPropertyOp8
 70
     1
102
RTVSPropertyOp9
 70
     1
102
RTVSPropertyOp10
 70
     1
102
RTVSPropertyOp11
 70
     1
102
RTVSPropertyOp12
 70
     1
102
RTVSPropertyOp13
 70
     1
102
RTVSPropertyOp14
 70
     1
102
RTVSPropertyOp15
 70
     1
102
RTVSPropertyOp16
 70
     1
102
RTVSPropertyOp17
 70
     1
102
RTVSPropertyOp18
 70
     1
102
RTVSPropertyOp19
 70
     1
102
RTVSPropertyOp20
 70
     1
102
RTVSPropertyOp21
 70
     1
102
RTVSPropertyOp22
 70
     1
102
RTVSPropertyOp23
 70
     1
102
RTVSPropertyOp24
 70
     1
102
RTVSPropertyOp25
 70
     1
102
RTVSPropertyOp26
 70
     1
102
RTVSPropertyOp27
 70
     1
102
RTVSPropertyOp28
 70
     1
102
RTVSPropertyOp29
 70
     1
102
RTVSPropertyOp30
 70
     1
102
RTVSPropertyOp31
 70
     1
102
RTVSPropertyOp32
 70
     1
102
RTVSPropertyOp33
 70
     1
102
RTVSPropertyOp34
 70
     1
102
RTVSPropertyOp35
 70
     1
102
RTVSPropertyOp36
 70
     1
102
RTVSPropertyOp37
 70
     1
102
RTVSPropertyOp38
 70
     1
102
RTVSPropertyOp39
 70
     1
102
RTVSPropertyOp40
 70
     1
102
RTVSPropertyOp41
 70
     1
102
RTVSPropertyOp42
 70
     1
102
RTVSPropertyOp43
 70
     1
102
RTVSPropertyOp44
 70
     1
102
RTVSPropertyOp45
 70
     1
102
RTVSPropertyOp46
 70
     1
102
RTVSPropertyOp47
 70
     1
102
RTVSPropertyOp48
 70
     1
102
RTVSPropertyOp49
 70
     1
102
RTVSPropertyOp50
 70
     1
102
RTVSPropertyOp51
 70
     0
102
RTVSPropertyOp52
 70
     0
102
RTVSPropertyOp53
 70
     1
102
RTVSPropertyOp54
 70
     1
102
RTVSPropertyOp55
 70
     1
102
RTVSPropertyOp56
 70
     1
102
RTVSPropertyOp57
 70
     1
102
RTVSPost2010Prop28
280
     0
102
RTVSPost2010PropOp28
 70
     1
102
RTVSPost2010Prop29
280
     1
102
RTVSPost2010PropOp29
 70
     1
102
RTVSPost2010Prop30
280
     1
102
RTVSPost2010PropOp30
 70
     1
102
RTVSPost2010Prop31
280
     0
102
RTVSPost2010PropOp31
 70
     1
102
RTVSPost2010Prop32
280
     0
102
RTVSPost2010PropOp32
 70
     1
102
RTVSPost2010Prop33
280
     0
102
RTVSPost2010PropOp33
 70
     1
102
RTVSPost2010Prop34
280
     0
102
RTVSPost2010PropOp34
 70
     1
102
RTVSPost2010Prop35
280
     0
102
RTVSPost2010PropOp35
 70
     1
102
RTVSPost2010Prop36
280
     0
102
RTVSPost2010PropOp36
 70
     1
102
RTVSPost2010Prop37
 90
       50
102
RTVSPost2010PropOp37
 70
     1
102
RTVSPost2010Prop38
140
0.0
102
RTVSPost2010PropOp38
 70
     1
102
RTVSPost2010Prop39
140
1.0
102
RTVSPost2010PropOp39
 70
     1
102
RTVSPost2010Prop40
 90
        0
102
RTVSPost2010PropOp40
 70
     1
102
RTVSPost2010Prop41ColorIndex
 90
       18
102
RTVSPost2010Prop41ColorRGB
 90
        0
102
RTVSPost2010PropOp41
 70
     1
102
RTVSPost2010Prop42
 90
       50
102
RTVSPost2010PropOp42
 70
     1
102
RTVSPost2010Prop43
 90
        3
102
RTVSPost2010PropOp43
 70
     1
102
RTVSPost2010Prop44ColorIndex
 90
        5
102
RTVSPost2010Prop44ColorRGB
 90
      255
102
RTVSPost2010PropOp44
 70
     1
102
RTVSPost2010Prop45
280
     0
102
RTVSPost2010PropOp45
 70
     1
102
RTVSPost2010Prop46
 90
       50
102
RTVSPost2010PropOp46
 70
     1
102
RTVSPost2010Prop47
 90
       50
102
RTVSPost2010PropOp47
 70
     1
102
RTVSPost2010Prop48
 90
       50
102
RTVSPost2010PropOp48
 70
     1
102
RTVSPost2010Prop49
280
     0
102
RTVSPost2010PropOp49
 70
     1
102
RTVSPost2010Prop50
 90
       50
102
RTVSPost2010PropOp50
 70
     1
102
RTVSPost2010Prop51ColorIndex
 90
      256
102
RTVSPost2010Prop51ColorRGB
 90
-16777216
102
RTVSPost2010PropOp51
 70
     0
102
RTVSPost2010Prop52
140
1.0
102
RTVSPost2010PropOp52
 70
     0
102
RTVSPost2010Prop53
 90
        2
102
RTVSPost2010PropOp53
 70
     1
102
RTVSPost2010Prop54
  1
strokes_ogs.tif
102
RTVSPost2010PropOp54
 70
     1
102
RTVSPost2010Prop55
280
     0
102
RTVSPost2010PropOp55
 70
     1
102
RTVSPost2010Prop56
140
1.0
102
RTVSPost2010PropOp56
 70
     1
102
RTVSPost2010Prop57
140
1.0
102
RTVSPost2010PropOp57
 70
     1
  0
XRECORD
  5
DC
102
{ACAD_REACTORS
330
DB
102
}
330
DB
100
AcDbXrecord
280
     1
102
RTVSPropertyOp0
 70
     1
102
RTVSPropertyOp1
 70
     1
102
RTVSPropertyOp2
 70
     1
102
RTVSPropertyOp3
 70
     1
102
RTVSPropertyOp4
 70
     1
102
RTVSPropertyOp5
 70
     1
102
RTVSPropertyOp6
 70
     1
102
RTVSPropertyOp7
 70
     1
102
RTVSPropertyOp8
 70
     1
102
RTVSPropertyOp9
 70
     1
102
RTVSPropertyOp10
 70
     1
102
RTVSPropertyOp11
 70
     1
102
RTVSPropertyOp12
 70
     1
102
RTVSPropertyOp13
 70
     1
102
RTVSPropertyOp14
 70
     1
102
RTVSPropertyOp15
 70
     1
102
RTVSPropertyOp16
 70
     1
102
RTVSPropertyOp17
 70
     1
102
RTVSPropertyOp18
 70
     1
102
RTVSPropertyOp19
 70
     1
102
RTVSPropertyOp20
 70
     1
102
RTVSPropertyOp21
 70
     1
102
RTVSPropertyOp22
 70
     1
102
RTVSPropertyOp23
 70
     1
102
RTVSPropertyOp24
 70
     1
102
RTVSPropertyOp25
 70
     1
102
RTVSPropertyOp26
 70
     1
102
RTVSPropertyOp27
 70
     1
102
RTVSPropertyOp28
 70
     1
102
RTVSPropertyOp29
 70
     1
102
RTVSPropertyOp30
 70
     1
102
RTVSPropertyOp31
 70
     1
102
RTVSPropertyOp32
 70
     1
102
RTVSPropertyOp33
 70
     1
102
RTVSPropertyOp34
 70
     1
102
RTVSPropertyOp35
 70
     1
102
RTVSPropertyOp36
 70
     1
102
RTVSPropertyOp37
 70
     1
102
RTVSPropertyOp38
 70
     1
102
RTVSPropertyOp39
 70
     1
102
RTVSPropertyOp40
 70
     1
102
RTVSPropertyOp41
 70
     1
102
RTVSPropertyOp42
 70
     1
102
RTVSPropertyOp43
 70
     1
102
RTVSPropertyOp44
 70
     1
102
RTVSPropertyOp45
 70
     1
102
RTVSPropertyOp46
 70
     1
102
RTVSPropertyOp47
 70
     1
102
RTVSPropertyOp48
 70
     1
102
RTVSPropertyOp49
 70
     1
102
RTVSPropertyOp50
 70
     1
102
RTVSPropertyOp51
 70
     0
102
RTVSPropertyOp52
 70
     0
102
RTVSPropertyOp53
 70
     1
102
RTVSPropertyOp54
 70
     1
102
RTVSPropertyOp55
 70
     1
102
RTVSPropertyOp56
 70
     1
102
RTVSPropertyOp57
 70
     1
102
RTVSPost2010Prop28
280
     0
102
RTVSPost2010PropOp28
 70
     1
102
RTVSPost2010Prop29
280
     1
102
RTVSPost2010PropOp29
 70
     1
102
RTVSPost2010Prop30
280
     1
102
RTVSPost2010PropOp30
 70
     1
102
RTVSPost2010Prop31
280
     0
102
RTVSPost2010PropOp31
 70
     1
102
RTVSPost2010Prop32
280
     0
102
RTVSPost2010PropOp32
 70
     1
102
RTVSPost2010Prop33
280
     0
102
RTVSPost2010PropOp33
 70
     1
102
RTVSPost2010Prop34
280
     0
102
RTVSPost2010PropOp34
 70
     1
102
RTVSPost2010Prop35
280
     0
102
RTVSPost2010PropOp35
 70
     1
102
RTVSPost2010Prop36
280
     0
102
RTVSPost2010PropOp36
 70
     1
102
RTVSPost2010Prop37
 90
       50
102
RTVSPost2010PropOp37
 70
     1
102
RTVSPost2010Prop38
140
0.0
102
RTVSPost2010PropOp38
 70
     1
102
RTVSPost2010Prop39
140
1.0
102
RTVSPost2010PropOp39
 70
     1
102
RTVSPost2010Prop40
 90
        0
102
RTVSPost2010PropOp40
 70
     1
102
RTVSPost2010Prop41ColorIndex
 90
       18
102
RTVSPost2010Prop41ColorRGB
 90
        0
102
RTVSPost2010PropOp41
 70
     1
102
RTVSPost2010Prop42
 90
       50
102
RTVSPost2010PropOp42
 70
     1
102
RTVSPost2010Prop43
 90
        3
102
RTVSPost2010PropOp43
 70
     1
102
RTVSPost2010Prop44ColorIndex
 90
        5
102
RTVSPost2010Prop44ColorRGB
 90
      255
102
RTVSPost2010PropOp44
 70
     1
102
RTVSPost2010Prop45
280
     0
102
RTVSPost2010PropOp45
 70
     1
102
RTVSPost2010Prop46
 90
       50
102
RTVSPost2010PropOp46
 70
     1
102
RTVSPost2010Prop47
 90
       50
102
RTVSPost2010PropOp47
 70
     1
102
RTVSPost2010Prop48
 90
       50
102
RTVSPost2010PropOp48
 70
     1
102
RTVSPost2010Prop49
280
     0
102
RTVSPost2010PropOp49
 70
     1
102
RTVSPost2010Prop50
 90
       50
102
RTVSPost2010PropOp50
 70
     1
102
RTVSPost2010Prop51ColorIndex
 90
      256
102
RTVSPost2010Prop51ColorRGB
 90
-16777216
102
RTVSPost2010PropOp51
 70
     0
102
RTVSPost2010Prop52
140
1.0
102
RTVSPost2010PropOp52
 70
     0
102
RTVSPost2010Prop53
 90
        2
102
RTVSPost2010PropOp53
 70
     1
102
RTVSPost2010Prop54
  1
strokes_ogs.tif
102
RTVSPost2010PropOp54
 70
     1
102
RTVSPost2010Prop55
280
     0
102
RTVSPost2010PropOp55
 70
     1
102
RTVSPost2010Prop56
140
1.0
102
RTVSPost2010PropOp56
 70
     1
102
RTVSPost2010Prop57
140
1.0
102
RTVSPost2010PropOp57
 70
     1
  0
XRECORD
  5
FC
102
{ACAD_REACTORS
330
FB
102
}
330
FB
100
AcDbXrecord
280
     1
102
RTVSPropertyOp0
 70
     1
102
RTVSPropertyOp1
 70
     1
102
RTVSPropertyOp2
 70
     1
102
RTVSPropertyOp3
 70
     1
102
RTVSPropertyOp4
 70
     1
102
RTVSPropertyOp5
 70
     1
102
RTVSPropertyOp6
 70
     1
102
RTVSPropertyOp7
 70
     1
102
RTVSPropertyOp8
 70
     1
102
RTVSPropertyOp9
 70
     1
102
RTVSPropertyOp10
 70
     1
102
RTVSPropertyOp11
 70
     1
102
RTVSPropertyOp12
 70
     1
102
RTVSPropertyOp13
 70
     1
102
RTVSPropertyOp14
 70
     1
102
RTVSPropertyOp15
 70
     1
102
RTVSPropertyOp16
 70
     1
102
RTVSPropertyOp17
 70
     1
102
RTVSPropertyOp18
 70
     1
102
RTVSPropertyOp19
 70
     1
102
RTVSPropertyOp20
 70
     1
102
RTVSPropertyOp21
 70
     1
102
RTVSPropertyOp22
 70
     1
102
RTVSPropertyOp23
 70
     1
102
RTVSPropertyOp24
 70
     1
102
RTVSPropertyOp25
 70
     1
102
RTVSPropertyOp26
 70
     1
102
RTVSPropertyOp27
 70
     1
102
RTVSPropertyOp28
 70
     1
102
RTVSPropertyOp29
 70
     1
102
RTVSPropertyOp30
 70
     1
102
RTVSPropertyOp31
 70
     1
102
RTVSPropertyOp32
 70
     1
102
RTVSPropertyOp33
 70
     1
102
RTVSPropertyOp34
 70
     1
102
RTVSPropertyOp35
 70
     1
102
RTVSPropertyOp36
 70
     1
102
RTVSPropertyOp37
 70
     1
102
RTVSPropertyOp38
 70
     1
102
RTVSPropertyOp39
 70
     1
102
RTVSPropertyOp40
 70
     1
102
RTVSPropertyOp41
 70
     1
102
RTVSPropertyOp42
 70
     1
102
RTVSPropertyOp43
 70
     1
102
RTVSPropertyOp44
 70
     1
102
RTVSPropertyOp45
 70
     1
102
RTVSPropertyOp46
 70
     1
102
RTVSPropertyOp47
 70
     1
102
RTVSPropertyOp48
 70
     1
102
RTVSPropertyOp49
 70
     1
102
RTVSPropertyOp50
 70
     1
102
RTVSPropertyOp51
 70
     0
102
RTVSPropertyOp52
 70
     0
102
RTVSPropertyOp53
 70
     1
102
RTVSPropertyOp54
 70
     1
102
RTVSPropertyOp55
 70
     1
102
RTVSPropertyOp56
 70
     1
102
RTVSPropertyOp57
 70
     1
102
RTVSPost2010Prop28
280
     0
102
RTVSPost2010PropOp28
 70
     1
102
RTVSPost2010Prop29
280
     1
102
RTVSPost2010PropOp29
 70
     1
102
RTVSPost2010Prop30
280
     1
102
RTVSPost2010PropOp30
 70
     1
102
RTVSPost2010Prop31
280
     0
102
RTVSPost2010PropOp31
 70
     1
102
RTVSPost2010Prop32
280
     0
102
RTVSPost2010PropOp32
 70
     1
102
RTVSPost2010Prop33
280
     0
102
RTVSPost2010PropOp33
 70
     1
102
RTVSPost2010Prop34
280
     0
102
RTVSPost2010PropOp34
 70
     1
102
RTVSPost2010Prop35
280
     0
102
RTVSPost2010PropOp35
 70
     1
102
RTVSPost2010Prop36
280
     0
102
RTVSPost2010PropOp36
 70
     1
102
RTVSPost2010Prop37
 90
       50
102
RTVSPost2010PropOp37
 70
     1
102
RTVSPost2010Prop38
140
0.0
102
RTVSPost2010PropOp38
 70
     1
102
RTVSPost2010Prop39
140
1.0
102
RTVSPost2010PropOp39
 70
     1
102
RTVSPost2010Prop40
 90
        0
102
RTVSPost2010PropOp40
 70
     1
102
RTVSPost2010Prop41ColorIndex
 90
       18
102
RTVSPost2010Prop41ColorRGB
 90
        0
102
RTVSPost2010PropOp41
 70
     1
102
RTVSPost2010Prop42
 90
       50
102
RTVSPost2010PropOp42
 70
     1
102
RTVSPost2010Prop43
 90
        3
102
RTVSPost2010PropOp43
 70
     1
102
RTVSPost2010Prop44ColorIndex
 90
        5
102
RTVSPost2010Prop44ColorRGB
 90
      255
102
RTVSPost2010PropOp44
 70
     1
102
RTVSPost2010Prop45
280
     0
102
RTVSPost2010PropOp45
 70
     1
102
RTVSPost2010Prop46
 90
       50
102
RTVSPost2010PropOp46
 70
     1
102
RTVSPost2010Prop47
 90
       50
102
RTVSPost2010PropOp47
 70
     1
102
RTVSPost2010Prop48
 90
       50
102
RTVSPost2010PropOp48
 70
     1
102
RTVSPost2010Prop49
280
     0
102
RTVSPost2010PropOp49
 70
     1
102
RTVSPost2010Prop50
 90
       50
102
RTVSPost2010PropOp50
 70
     1
102
RTVSPost2010Prop51ColorIndex
 90
      256
102
RTVSPost2010Prop51ColorRGB
 90
-16777216
102
RTVSPost2010PropOp51
 70
     0
102
RTVSPost2010Prop52
140
1.0
102
RTVSPost2010PropOp52
 70
     0
102
RTVSPost2010Prop53
 90
        2
102
RTVSPost2010PropOp53
 70
     1
102
RTVSPost2010Prop54
  1
strokes_ogs.tif
102
RTVSPost2010PropOp54
 70
     1
102
RTVSPost2010Prop55
280
     0
102
RTVSPost2010PropOp55
 70
     1
102
RTVSPost2010Prop56
140
1.0
102
RTVSPost2010PropOp56
 70
     1
102
RTVSPost2010Prop57
140
1.0
102
RTVSPost2010PropOp57
 70
     1
  0
ENDSEC
  0
EOF
